Rufio - Comfort Of Home Chords & Tabs

 

Comfort Of Home Chords & Tabs

Rufio Chords & Tabs

Version: 1 Type: Tab 0 ratings
1 star 2 stars 3 stars 4 stars 5 stars
comments

Comfort Of Home Tab

   
R U F I O - T H E  C O M F O R T  O F  H O M E
----------------------------------------------
1. Out of Control
2. Let Fate Decide
3. A Simple Line
4. Interlude 1
5. Never Learn
6. Bitter Season
7. Mental Games
8. Interlude 2
9. Drowning
10. Questions and Answers
11. Life Songs
12. Interlude
13. Walk Don't Run
14. A View to Save
15. Interlude 4/On Our Own
16. My Escape

Tabbed by:Mark Bradshaw/Dontlookdownkid04-Email me if you have any
questions/comments-lwrufiog310@cs.com


EVERY SONG CORRECTED/REVISED-4/23/06

---------------------------
1.O U T  O F  C O N T R O L
---------------------------

Tuning:Standard

--------
Guitar 1
--------

Intro
E|---------0---------2r0---2-0---------------0----------------||
B|---2-----.-0-------------.-.---2-----2-----.-0-------5-5555-||
G|---.-2-1---.-2---------2-----2-.-----.-2-1---.-2-----2-2222-||
D|-4---.-.-----.-0-0-----.-----.-----4---.-.-----.-0-0-0-0000-||
A|-.-------------.-.-----------------.-------------.-.--------||
E|------------------------------------------------------------||

E|---------0---------2r0---2-0---------------0----------------||
B|---2-----.-0-------------.-.---2-----2-----.-0-------5-5555-||
G|---.-2-1---.-2---------2-----2-.-----.-2-1---.-2-----2-2222-||
D|-4---.-.-----.-0-0-----.-----.-----4---.-.-----.-0-0-0-0000-||
A|-.-------------.-.-----------------.-------------.-.--------||
E|------------------------------------------------------------||

E|---------0---------2r0---2-0---------------0----------------||
B|---2-----.-0-------------.-.---2-----2-----.-0-------555555-||
G|---.-2-1---.-2---------2-----2-.-----.-2-1---.-2-----222222-||
D|-4---.-.-----.-0-0-----.-----.-----4---.-.-----.-0---000000-||
A|-.-------------.-.-----------------.-------------.----------||
E|------------------------------------------------------------||

E|---------------------------------------------------------||
B|---------------------------------------------------------||
G|------2-1----------2-1-----------6--------------6-4--7-6-||
D|----------4-2----------4-2--0--7---9--7-6--0--7----------||
A|----4------------4---------------------------------------||
E|-2------------2------------------------------------------||

E|------------------------------------------------------||
B|------------------------------------------------------||
G|------2-1----------2-1-----------6--------------6-7-6-||
D|----------4-2----------4-2--0--7---9--7-6--0--7-------||
A|----4------------4------------------------------------||
E|-2------------2---------------------------------------||
Verse
E|---------------------------------------------------||
B|---------------------------------------------------||
G|---------------------------------------------------||
D|-------------------------4-----------------------4-||
A|----------------------7/-4-----------------------4-||
E|-------------------------2-----------------------2-||

E|--------------------------------------------------------||
B|--------------------------------------------------------||
G|----------------------------------------7--7-7-7--7-7---||
D|-4-4-4--4-4-4--4-4-4--4-4-7--7-7-7--7-7-7--7-7-7--7-7-4-||
A|-4-4-4--4-4-4--4-4-4--4-4-7--7-7-7--7-7-5--5-5-5--5-5-4-||
E|-2-2-2--2-2-2--2-2-2--2-2-5--5-5-5--5-5---------------2-||

E|------------------------------------------------------||
B|------------------------------------------------------||
G|----------------------------------------7--7-7-7--7-7-||
D|-4-4-4--4-4-4--4-4-4--4-4-7--7-7-7--7-7-7--7-7-7--7-7-||
A|-4-4-4--4-4-4--4-4-4--4-4-7--7-7-7--7-7-5--5-5-5--5-5-||
E|-2-2-2--2-2-2--2-2-2--2-2-5--5-5-5--5-5---------------||
Pre Chorus
E|-----------------------------------------------------------------------||
B|-----------------------------------------------------------------------||
G|-----------------------------------------------------------------------||
D|-----4---4-------------------------4---4-----------------------------2-||
A|-(0)-4-0-4---------------------(0)-4-0-4-------------------------2-4---||
E|-(0)-2-0-2---------------------(0)-2-0-2-------------------0-2-4-------||
Chorus
E|---------------------------------------------------||
B|---------------------------------------------------||
G|---------------------------------------------------||
D|-------------------------4-4---4-4---4-----------2-||
A|-5-5-44-22-00-22-00------4-4-0-4-4-0-4-------2-4---||
E|--------------------44-0-2-2-0-2-2-0-2-0-2-4-------||

E|---------------------------------------------------||
B|---------------------------------------------------||
G|---------------------------------------------------||
D|-------------------------4-4---4-4---4-----------2-||
A|-5-5-44-22-00-22-00------4-4-0-4-4-0-4-------2-4---||
E|--------------------44-0-2-2-0-2-2-0-2-0-2-4-------||

E|---------------------------------------------------||
B|---------------------------------------------------||
G|---------------------------------------------------||
D|-------------------------4-4---4-4---4-----------2-||
A|-5-5-44-22-00-22-00------4-4-0-4-4-0-4-------2-4---||
E|--------------------44-0-2-2-0-2-2-0-2-0-2-4-------||

E|-----------------------------------------0~------------------0~---||
B|-----------------------------------------0~------------------0~---||
G|------------------------------------------------------------------||
D|-------------------------4-4-4-4-4-4-2~-----4-4-4-4-4-4-2~------/-||
A|-5-5-44-22-00-22-00------4-4-4-4-4-4-2~-----4-4-4-4-4-4-2~------/-||
E|--------------------44-0-2-2-2-2-2-2-0~-----2-2-2-2-2-2-0~------/-||
Intro
E|---------------------------------------------------------||
B|---------------------------------------------------------||
G|------2-1----------2-1-----------6--------------6-4--7-6-||
D|----------4-2----------4-2--0--7---9--7-6--0--7----------||
A|----4------------4---------------------------------------||
E|-2------------2------------------------------------------||

E|------------------------------------------------------||
B|------------------------------------------------------||
G|------2-1----------2-1-----------6--------------6-7-6-||
D|----------4-2----------4-2--0--7---9--7-6--0--7-------||
A|----4------------4------------------------------------||
E|-2------------2---------------------------------------||
Verse
E|------------------------------------------------------------||
B|------------------------------------------------------------||
G|-6--------------------------------------6-6-6-6-4-4-4-4-----||
D|-4-4-4-7-7-7-7-6-6-6-6-4-4-4-4--7-7-7-7-.-.-.-.-.-.-.-.---4-||
A|---.-.-.-.-.-.-.-.-.-.-.-.-.-.--.-.-.-.-----------------7/4-||
E|----------------------------------------------------------2-||

E|------------------------------------------------------------||
B|------------------------------------------------------------||
G|-6--------------------------------------6-6-6-6-4-4-4-4-7-7-||
D|-4-4-4-7-7-7-7-6-6-6-6-4-4-4-4--7-7-7-7-.-.-.-.-.-.-.-.-7-7-||
A|---.-.-.-.-.-.-.-.-.-.-.-.-.-.--.-.-.-.-----------------5-5-||
E|------------------------------------------------------------||

E|--------------------------------------------------------||
B|--------------------------------------------------------||
G|----------------------------------------7--7-7-7--7-7---||
D|-4-4-4--4-4-4--4-4-4--4-4-7--7-7-7--7-7-7--7-7-7--7-7-4-||
A|-4-4-4--4-4-4--4-4-4--4-4-7--7-7-7--7-7-5--5-5-5--5-5-4-||
E|-2-2-2--2-2-2--2-2-2--2-2-5--5-5-5--5-5---------------2-||

E|--------------------------------------------------------||
B|--------------------------------------------------------||
G|--------------------------------------------------------||
D|-4-4-4--4-4-4--4-4-4--4-4-7--7-7-7--7-7-----------------||
A|-4-4-4--4-4-4--4-4-4--4-4-7--7-7-7--7-7-5r0h5r0h5r0h5r0-||
E|-2-2-2--2-2-2--2-2-2--2-2-5--5-5-5--5-5-----------------||
Pre Chorus
E|----------------------------------------||
B|----------------------------------------||
G|----------------------------------------||
D|-4---4----------------------------------||
A|-4-0-4--2--2-7-0-7--2--2--4-4--4-2~-----||
E|-2-0-2--0--0-5-0-5--0--0--2-2--2-0~-----||

E|-------------------------------------------------||
B|-------------------------------------------------||
G|-------------------------------------------------||
D|-4---4-----------------------------------------2-||
A|-4-0-4--2--2-7-0-7--2--2--4-4--4-2~--------2-4---||
E|-2-0-2--0--0-5-0-5--0--0--2-2--2-0~--0-2-4-------||
Chorus
E|---------------------------------------------------||
B|---------------------------------------------------||
G|---------------------------------------------------||
D|-------------------------4-4---4-4---4-----------2-||
A|-5-5-44-22-00-22-00------4-4-0-4-4-0-4-------2-4---||
E|--------------------44-0-2-2-0-2-2-0-2-0-2-4-------||

E|---------------------------------------------------||
B|---------------------------------------------------||
G|---------------------------------------------------||
D|-------------------------4-4---4-4---4-----------2-||
A|-5-5-44-22-00-22-00------4-4-0-4-4-0-4-------2-4---||
E|--------------------44-0-2-2-0-2-2-0-2-0-2-4-------||

E|---------------------------------------------------||
B|---------------------------------------------------||
G|---------------------------------------------------||
D|-------------------------4-4---4-4---4-----------2-||
A|-5-5-44-22-00-22-00------4-4-0-4-4-0-4-------2-4---||
E|--------------------44-0-2-2-0-2-2-0-2-0-2-4-------||

E|-----------------------------------------0~------------------0~---||
B|-----------------------------------------0~------------------0~---||
G|------------------------------------------------------------------||
D|-------------------------4-4-4-4-4-4-2~-----4-4-4-4-4-4-2~------/-||
A|-5-5-44-22-00-22-00------4-4-4-4-4-4-2~-----4-4-4-4-4-4-2~------/-||
E|--------------------44-0-2-2-2-2-2-2-0~-----2-2-2-2-2-2-0~------/-||
Bridge
E|---------0---------2r0---2-0---------------0----------------||
B|---2-----.-0-------------.-.---2-----2-----.-0-------5-5555-||
G|---.-2-1---.-2---------2-----2-.-----.-2-1---.-2-----2-2222-||
D|-4---.-.-----.-0-0-----.-----.-----4---.-.-----.-0-0-0-0000-||
A|-.-------------.-.-----------------.-------------.-.--------||
E|------------------------------------------------------------||

E|---------0---------2r0---2-0---------------0----------------||
B|---2-----.-0-------------.-.---2-----2-----.-0-------555555-||
G|---.-2-1---.-2---------2-----2-.-----.-2-1---.-2-----222222-||
D|-4---.-.-----.-0-0-----.-----.-----4---.-.-----.-0---000000-||
A|-.-------------.-.-----------------.-------------.----------||
E|------------------------------------------------------------||

E|---------0---------2r0---2-0---------------0----------------||
B|---2-----.-0-------------.-.---2-----2-----.-0-------5-5555-||
G|---.-2-1---.-2---------2-----2-.-----.-2-1---.-2-----2-2222-||
D|-4---.-.-----.-0-0-----.-----.-----4---.-.-----.-0-0-0-0000-||
A|-.-------------.-.-----------------.-------------.-.--------||
E|------------------------------------------------------------||

E|---------0---------2r0---2-0---------------||
B|---2-----.-0-------------.-.---2-----------||
G|---.-2-1---.-2---------2-----2-.-----------||
D|-4---.-.-----.-0-0-----.-----.-----4-/7-6~-||
A|-.-------------.-.-------------------------||
E|-------------------------------------------||

E|-----------------------------------------------------------------------||
B|-----------------------------------------------------------------------||
G|-7~~~~---------------7~~~~---------------7~~~~---------------7~~~~-----||
D|-7~~~~-----4~~~~-----7~~~~-----4~~~~-----7~~~~-----4~~~~-----7~~~~-----||
A|-5~~~~-----4~~~~-----5~~~~-----4~~~~-----5~~~~-----4~~~~-----5~~~~-----||
E|-----------2~~~~---------------2~~~~---------------2~~~~---------------||

E|----------------------------||
B|----------------------------||
G|----------------------------||
D|-4-4-4-4-4-4-2-----------2--||
A|-4-4-4-4-4-4-2-------2-4----||
E|-2-2-2-2-2-2-0-0-2-4--------||
Chorus
E|---------------------------------------------------||
B|---------------------------------------------------||
G|---------------------------------------------------||
D|-------------------------4-4---4-4---4-----------2-||
A|-5-5-44-22-00-22-00------4-4-0-4-4-0-4-------2-4---||
E|--------------------44-0-2-2-0-2-2-0-2-0-2-4-------||

E|---------------------------------------------------||
B|---------------------------------------------------||
G|---------------------------------------------------||
D|-------------------------4-4---4-4---4-----------2-||
A|-5-5-44-22-00-22-00------4-4-0-4-4-0-4-------2-4---||
E|--------------------44-0-2-2-0-2-2-0-2-0-2-4-------||

E|---------------------------------------------------||
B|---------------------------------------------------||
G|---------------------------------------------------||
D|-------------------------4-4---4-4---4-----------2-||
A|-5-5-44-22-00-22-00------4-4-0-4-4-0-4-------2-4---||
E|--------------------44-0-2-2-0-2-2-0-2-0-2-4-------||

E|-----------------------------------------0~------------------0~---||
B|-----------------------------------------0~------------------0~---||
G|------------------------------------------------------------------||
D|-------------------------4-4-4-4-4-4-2~-----4-4-4-4-4-4-2~------/-||
A|-5-5-44-22-00-22-00------4-4-4-4-4-4-2~-----4-4-4-4-4-4-2~------/-||
E|--------------------44-0-2-2-2-2-2-2-0~-----2-2-2-2-2-2-0~------/-||
Outro
E|---------------------------------------------------------||
B|---------------------------------------------------------||
G|------2-1----------2-1-----------6--------------6-4--7-6-||
D|----------4-2----------4-2--0--7---9--7-6--0--7----------||
A|----4------------4---------------------------------------||
E|-2------------2------------------------------------------||

E|---------------------------------------------------------||
B|---------------------------------------------------------||
G|------2-1----------2-1-----------6--------------6-4-6----||
D|----------4-2----------4-2--0--7---9--7-6--0--7-------4/-||
A|----4------------4------------------------------------4/-||
E|-2------------2---------------------------------------2/-||

--------
Guitar 2
--------

Intro
E|--------------------------------------------------------------||
B|--------------------------------------------------------------||
G|--------------------------------------------------------------||
D|--------------------------------------------------------------||
A|------------------5-5-5-5--5-5-5---------------5-5-5-5--5-5-5-||
E|-12/-2-2-2-5--5-5-.-.-.-.--.-.-.--2-2-2-5--5-5-.-.-.-.--.-.-.-||
       . . . .  . .                 . . . .  . .
E|-----------------------------------------------------------||
B|-----------------------------------------------------------||
G|------2-1----------2-1-------------------------------11-9--||
D|----------4-2----------4-2--------/12-11-9--------12-------||
A|----4------------4---------/9-r7h9---------9-r7h9----------||
E|-2------------2--------------------------------------------||

E|----------------------------------------------------------||
B|----------------------------------------------------------||
G|------2-1----------2-1------------------------------------||
D|----------4-2----------4-2--------/12-11-9--------12-7-4/-||
A|----4------------4---------/9-r7h9---------9-r7h9----7-4/-||
E|-2------------2--------------------------------------5-2/-||
Verse
E|--------------------------------------------------------||
B|--------------------------------------------------------||
G|--------------------------------------------------7-7---||
D|----------------------------------------7--7-7-7--7-7-4-||
A|-4-4-4--4-4-4--4-4-4--4-4-7--7-7-7--7-7-5--5-5-5--5-5-4-||
E|-2-2-2--2-2-2--2-2-2--2-2-5--5-5-5--5-5-.--.-.-.------2-||
  . . .  . . .  . . .  . . .  . . .  . .
E|--------------------------------------------------------||
B|--------------------------------------------------------||
G|--------------------------------------------------7-7---||
D|----------------------------------------7--7-7-7--7-7-4-||
A|-4-4-4--4-4-4--4-4-4--4-4-7--7-7-7--7-7-5--5-5-5--5-5-4-||
E|-2-2-2--2-2-2--2-2-2--2-2-5--5-5-5--5-5-.--.-.-.------2-||
  . . .  . . .  . . .  . . .  . . .  . .
E|--------------------------------------------------------||
B|--------------------------------------------------------||
G|----------------------------------------7--7-7-7--7-7---||
D|-4-4-4--4-4-4--4-4-4--4-4-7--7-7-7--7-7-7--7-7-7--7-7-4-||
A|-4-4-4--4-4-4--4-4-4--4-4-7--7-7-7--7-7-5--5-5-5--5-5-4-||
E|-2-2-2--2-2-2--2-2-2--2-2-5--5-5-5--5-5---------------2-||

E|------------------------------------------------------||
B|------------------------------------------------------||
G|----------------------------------------7--7-7-7--7-7-||
D|-4-4-4--4-4-4--4-4-4--4-4-7--7-7-7--7-7-7--7-7-7--7-7-||
A|-4-4-4--4-4-4--4-4-4--4-4-7--7-7-7--7-7-5--5-5-5--5-5-||
E|-2-2-2--2-2-2--2-2-2--2-2-5--5-5-5--5-5---------------||
Pre Chorus
E|--------------------------------------||
B|--------------------------------------||
G|--------------------------------------||
D|---4---4------------------------------||
A|-0-4-0-4------------------------------||
E|-0-2-0-2--0--0-5-0-5--0--0--2-2--2-0~-||
            .  . . . .  .  .  . .  .
E|---------------------------------------------------||
B|---------------------------------------------------||
G|---------------------------------------------------||
D|---4---4-----------------------------------------2-||
A|-0-4-0-4-------------------------------------2-4---||
E|-0-2-0-2--0--0-5-0-5--0--0--2-2--2-0~--0-2-4-------||
            .  . . . .  .  .  . .  .
Chorus
E|---------------------------------------------------||
B|---------------------------------------------------||
G|111111111111111111111111---------------------------||
D|-x-x-x-x-x-x-x-x-x-x-x-x-4-4---4-4---4-----------2-||
A|-9-9-9-9-9-9-9-9-9-9-9-9-4-4-0-4-4-0-4-------2-4---||
E|-------------------------2-2-0-2-2-0-2-0-2-4-------||

E|---------------------------------------------------||
B|---------------------------------------------------||
G|111111111111111111111111---------------------------||
D|-x-x-x-x-x-x-x-x-x-x-x-x-4-4---4-4---4-----------2-||
A|-9-9-9-9-9-9-9-9-9-9-9-9-4-4-0-4-4-0-4-------2-4---||
E|-------------------------2-2-0-2-2-0-2-0-2-4-------||

E|---------------------------------------------------||
B|---------------------------------------------------||
G|---------------------------------------------------||
D|-------------------------4-4---4-4---4-----------2-||
A|-9-9-77------------------4-4-0-4-4-0-4-------2-4---||
E|-------101099101099-77-0-2-2-0-2-2-0-2-0-2-4-------||

E|-----------------------------------------------------------------------------||
B|-----------------------------------------------------------------------------||
G|-----------------------------------------------------------------------------||
D|-------------------------------------------------4-4-4-4-4-4-4-2-2-2-2-2-2-2-||
A|-9-9-77------------------9-9-77------------------4-4-4-4-4-4-4-2-2-2-2-2-2-2-||
E|-------101099101099-77-0-------101099101099-77-0-2-2-2-2-2-2-2-0-0-0-0-0-0-0-||
Intro
E|-----------------------------------------------------------||
B|-----------------------------------------------------------||
G|------2-1----------2-1-------------------------------11-9--||
D|----------4-2----------4-2--------/12-11-9--------12-------||
A|----4------------4---------/9-r7h9---------9-r7h9----------||
E|-2------------2--------------------------------------------||

E|----------------------------------------------------------||
B|----------------------------------------------------------||
G|------2-1----------2-1------------------------------------||
D|----------4-2----------4-2--------/12-11-9--------12-7-4/-||
A|----4------------4---------/9-r7h9---------9-r7h9----7-4/-||
E|-2------------2--------------------------------------5-2/-||
Verse
E|--------------------------------------------------------||
B|--------------------------------------------------------||
G|--------------------------------------------------7-7---||
D|----------------------------------------7--7-7-7--7-7-4-||
A|-4-4-4--4-4-4--4-4-4--4-4-7--7-7-7--7-7-5--5-5-5--5-5-4-||
E|-2-2-2--2-2-2--2-2-2--2-2-5--5-5-5--5-5-.--.-.-.------2-||
  . . .  . . .  . . .  . . .  . . .  . .
E|--------------------------------------------------------||
B|--------------------------------------------------------||
G|--------------------------------------------------7-7---||
D|----------------------------------------7--7-7-7--7-7-4-||
A|-4-4-4--4-4-4--4-4-4--4-4-7--7-7-7--7-7-5--5-5-5--5-5-4-||
E|-2-2-2--2-2-2--2-2-2--2-2-5--5-5-5--5-5-.--.-.-.------2-||
  . . .  . . .  . . .  . . .  . . .  . .
E|--------------------------------------------------------||
B|--------------------------------------------------------||
G|----------------------------------------7--7-7-7--7-7---||
D|-4-4-4--4-4-4--4-4-4--4-4-7--7-7-7--7-7-7--7-7-7--7-7-4-||
A|-4-4-4--4-4-4--4-4-4--4-4-7--7-7-7--7-7-5--5-5-5--5-5-4-||
E|-2-2-2--2-2-2--2-2-2--2-2-5--5-5-5--5-5---------------2-||

E|--------------------------------------------------------||
B|--------------------------------------------------------||
G|--------------------------------------------------------||
D|-4-4-4--4-4-4--4-4-4--4-4-7--7-7-7--7-7-----------------||
A|-4-4-4--4-4-4--4-4-4--4-4-7--7-7-7--7-7-5r0h5r0h5r0h5r0-||
E|-2-2-2--2-2-2--2-2-2--2-2-5--5-5-5--5-5-----------------||
Pre Chorus
E|---------------------------------------------||
B|---------------------------------------------||
G|---------------------------------------------||
D|-4---4---------------------------------------||
A|-4-0-4--2--2-7-0-7--2--2--4-4--4-2~-22-00----||
E|-2-0-2--0--0-5-0-5--0--0--2-2--2-0~-------40-||

E|-------------------------------------------------||
B|-------------------------------------------------||
G|-------------------------------------------------||
D|-4---4-----------------------------------------2-||
A|-4-0-4--2--2-7-0-7--2--2--4-4--4-2~--------2-4---||
E|-2-0-2--0--0-5-0-5--0--0--2-2--2-0~--0-2-4-------||
Chorus
E|---------------------------------------------------||
B|---------------------------------------------------||
G|111111111111111111111111---------------------------||
D|-x-x-x-x-x-x-x-x-x-x-x-x-4-4---4-4---4-----------2-||
A|-9-9-9-9-9-9-9-9-9-9-9-9-4-4-0-4-4-0-4-------2-4---||
E|-------------------------2-2-0-2-2-0-2-0-2-4-------||

E|---------------------------------------------------||
B|---------------------------------------------------||
G|111111111111111111111111---------------------------||
D|-x-x-x-x-x-x-x-x-x-x-x-x-4-4---4-4---4-----------2-||
A|-9-9-9-9-9-9-9-9-9-9-9-9-4-4-0-4-4-0-4-------2-4---||
E|-------------------------2-2-0-2-2-0-2-0-2-4-------||

E|---------------------------------------------------||
B|---------------------------------------------------||
G|---------------------------------------------------||
D|-------------------------4-4---4-4---4-----------2-||
A|-9-9-77------------------4-4-0-4-4-0-4-------2-4---||
E|-------101099101099-77-0-2-2-0-2-2-0-2-0-2-4-------||

E|-----------------------------------------------------------------------------------||
B|-----------------------------------------------------------------------------------||
G|-----------------------------------------------------------------------------------||
D|-------------------------------------------------4-4-4-4-4-4-4-2-2-2-2-2-2-2-------||
A|-9-9-77------------------9-9-77------------------4-4-4-4-4-4-4-2-2-2-2-2-2-2--4-4~-||
E|-------101099101099-77-0-------101099101099-77-0-2-2-2-2-2-2-2-0-0-0-0-0-0-0--2-2~-||
Bridge
E|---------------------------------------------------||
B|---------------------------------------------------||
G|---------------------------------------------------||
D|---------------------------------------------------||
A|-------------5-5-5-5--5-5-------------5-5-5-5--5-5-||
E|--2-2-2-5--5-.-.-.-.--.-.--2-2-2-5--5-.-.-.-.--.-.-||
    . . . .  .               . . . .  .
E|-----------------------------------------||
B|-----------------------------------------||
G|-----------------------------------------||
D|--------------------------------------2~-||
A|-------------5-5-5-5--5-5-------------2~-||
E|--2-2-2-5--5-.-.-.-.--.-.--2-2-2-5--5-0~-||
    . . . .  .               . . . .  .
E|-------------------------------------------||
B|-(strum very lightly)----------------------||
G|-7~----------------------------------------||
D|-7~----------------------------------------||
A|-5~----------------------------------------||
E|-------------------------------------------||

E|-------------------------------||
B|-------------------------------||
G|-------------------------------||
D|-------------------------------||
A|-9-9-77-55-44-55-44-22-0-4~----||
E|-------------------------------||

E|------------------------------------------------------||
B|------------------------------------------------------||
G|------------------------------------------------------||
D|----------------------------------------------------2-||
A|-9-9-77-------------------9-9-77----------------2-4---||
E|-------101099101099-77-0--------10109910--0-2-4-------||
Chorus
E|---------------------------------------------------||
B|---------------------------------------------------||
G|---------------------------------------------------||
D|-------------------------4-4---4-4---4-----------2-||
A|-9-9-77------------------4-4-0-4-4-0-4-------2-4---||
E|-------101099101099-77-0-2-2-0-2-2-0-2-0-2-4-------||

E|---------------------------------------------------||
B|---------------------------------------------------||
G|---------------------------------------------------||
D|-------------------------4-4---4-4---4-----------2-||
A|-9-9-77------------------4-4-0-4-4-0-4-------2-4---||
E|-------101099101099-77-0-2-2-0-2-2-0-2-0-2-4-------||

E|---------------------------------------------------||
B|---------------------------------------------------||
G|---------------------------------------------------||
D|-------------------------4-4---4-4---4-----------2-||
A|-9-9-77------------------4-4-0-4-4-0-4-------2-4---||
E|-------101099101099-77-0-2-2-0-2-2-0-2-0-2-4-------||

E|------------------------------------------------------------------------------||
B|------------------------------------------------------------------------------||
G|------------------------------------------------------------------------------||
D|-------------------------------------------------4-4-4-4-4-4-4-2-2-2-2-2-2-2-||
A|-9-9-77------------------9-9-77------------------4-4-4-4-4-4-4-2-2-2-2-2-2-2-||
E|-------101099101099-77-0-------101099101099-77-0-2-2-2-2-2-2-2-0-0-0-0-0-0-0-||
Outro*for the outro, the guitar parts switch speakers but live they did it this way
E|-----------------------------------------------------------||
B|-----------------------------------------------------------||
G|------2------------2---------------------------------11-9--||
D|----------4-2----------4-2--------/12-11-9--------12-------||
A|----4------------4---------/9-r7h9---------9-r7h9----------||
E|-2------2-----2------2-------------------------------------||

E|-----------------------------------------------------------||
B|-----------------------------------------------------------||
G|------2------------2------------------------------9-11-11/-||
D|----------4-2----------4-2--------/12-11-9--------------x--||
A|----4------------4---------/9-r7h9---------9-r7h9-------9/-||
E|-2------2-----2------2-------------------------------------||

--------
Guitar 3
--------
this guitar comes in at the end of each chorus

E|----------------------------||
B|-10-10-9-10-10-10--------^--||
G|-11-11-9-11-11-11/13~---14~-||
D|----------------------------||
A|----------------------------||
E|----------------------------||



-----------------------------
2.L E T  F A T E  D E C I D E
-----------------------------

Tuning:Drop D

--------
Guitar 1
--------

Intro
E|-----------------------------------------||
B|-----------------------------------------||
G|-----------------------------------------||
D|-6-6-6x----6-6-6x----2-2-2x----4-4-4x----||
A|-6-6-6x----6-6-6x----2-2-2x----4-4-4x----||
D|-6-6-6x----6-6-6x----2-2-2x----4-4-4x----||

E|----------------------------------------------------------------||
B|-------2h4r2-----------2h4r2----------2h4r2-----------2h4r2-----||
G|-------------3---------------3--------------3---------------3/4-||
D|-6-6-6---------4-6-6-6---------4-2-2-2--------4-4-4-4-----------||
A|-6-6-6-----------6-6-6-----------2-2-2----------4-4-4-----------||
D|-6-6-6-----------6-6-6-----------2-2-2----------4-4-4-----------||
Verse
E|-----------------------------------------||
B|-----------------------------------------||
G|-----------------------------------------||
D|-6-66-6/---6-66-6/---2-22-2/---4-44-4/---||
A|-6-66-6/---6-66-6/---2-22-2/---4-44-4/---||
D|-6-66-6/---6-66-6/---2-22-2/---4-44-4/---||

E|-----------------------------------------||
B|-----------------------------------------||
G|-----------------------------------------||
D|-6-66-6/---6-66-6/---2-22-2/---4-44-4/---||
A|-6-66-6/---6-66-6/---2-22-2/---4-44-4/---||
D|-6-66-6/---6-66-6/---2-22-2/---4-44-4/---||
Pre Chorus (slow part)
Silent

Chorus
E|----------------------------------------------------------------||
B|----------------------------------------------------------------||
G|-----------------4-4-4-4-4-4-4-4-3-3-3-3-3-3-3-3-4--4-6/8-6-4-3-||
D|-9-9-9-9-9-9-9-9-2-2-2-2-2-2-2-2-4-4-4-4-4-4-4-4-x--x-x-x-x-x-x-||
A|-6-6-6-6-6-6-6-6-2-2-2-2-2-2-2-2-x-x-x-x-x-x-x-x-2--2-4/6-4-2-1-||
D|-6-6-6-6-6-6-6-6-2-2-2-2-2-2-2-2-4-4-4-4-4-4-4-4----------------||

E|-------------------------------------------------||
B|-------------------------------------------------||
G|-----------------4-4-4-4-4-4-4-4-3-3-3-3-3-3-3-3-||
D|-9-9-9-9-9-9-9-9-2-2-2-2-2-2-2-2-4-4-4-4-4-4-4-4-||
A|-6-6-6-6-6-6-6-6-2-2-2-2-2-2-2-2-x-x-x-x-x-x-x-x-||
D|-6-6-6-6-6-6-6-6-2-2-2-2-2-2-2-2-4-4-4-4-4-4-4-4-||
Acoustic Chorus Ending
E|------------||
B|------------||
G|-8~---6~----||
D|-9~---8~----||
A|------------||
D|------------||
Verse
E|---------------------------------------xxxxxx-||
B|---------------------------------------xxxxxx-||
G|---------------------------------------xxxxxx-||
D|-6-66-6/---6-66-6/---2-22-2/---4-44-4/-xxxxxx-||
A|-6-66-6/---6-66-6/---2-22-2/---4-44-4/-xxxxxx-||
D|-6-66-6/---6-66-6/---2-22-2/---4-44-4/-xxxxxx-||

E|-----------------------------------------||
B|-----------------------------------------||
G|-----------------------------------------||
D|-6-66-6/---6-66-6/---2-22-2/---4-44-4/---||
A|-6-66-6/---6-66-6/---2-22-2/---4-44-4/---||
D|-6-66-6/---6-66-6/---2-22-2/---4-44-4/---||
Pre Chorus (slow part)
Silent

Chorus
E|----------------------------------------------------------------||
B|----------------------------------------------------------------||
G|-----------------4-4-4-4-4-4-4-4-3-3-3-3-3-3-3-3-4--4-6/8-6-4-3-||
D|-9-9-9-9-9-9-9-9-2-2-2-2-2-2-2-2-4-4-4-4-4-4-4-4-x--x-x-x-x-x-x-||
A|-6-6-6-6-6-6-6-6-2-2-2-2-2-2-2-2-x-x-x-x-x-x-x-x-2--2-4/6-4-2-1-||
D|-6-6-6-6-6-6-6-6-2-2-2-2-2-2-2-2-4-4-4-4-4-4-4-4----------------||

E|-------------------------------------------------||
B|-------------------------------------------------||
G|-----------------4-4-4-4-4-4-4-4-3-3-3-3-3-3-3-3-||
D|-9-9-9-9-9-9-9-9-2-2-2-2-2-2-2-2-4-4-4-4-4-4-4-4-||
A|-6-6-6-6-6-6-6-6-2-2-2-2-2-2-2-2-x-x-x-x-x-x-x-x-||
D|-6-6-6-6-6-6-6-6-2-2-2-2-2-2-2-2-4-4-4-4-4-4-4-4-||
Acoustic Chorus Ending
E|------------||
B|------------||
G|-8~---6~----||
D|-9~---8~----||
A|------------||
D|------------||
Bridge
E|-------------------------------------------------------||
B|-------4-4-4-------4-4-4-------4-4-4-------4-----------||
G|-------4-4-4-------4-4-4-------4-4-4-------.-6-4-3-----||
D|-2-2-2-------2-2-2-------4-4-4-------4-4-4---.-.-.-6-4-||
A|-2-2-2-------2-2-2-------4-4-4-------4-4-4---------.-.-||
D|-2-2-2-------2-2-2-------4-4-4-------4-4-4-------------||

E|-------------------------------------------------------||
B|-------4-4-4-------4-4-4-------4-4-4-------4-----------||
G|-------4-4-4-------4-4-4-------4-4-4-------.-6-4-3-----||
D|-2-2-2-------2-2-2-------4-4-4-------4-4-4---.-.-.-6-4-||
A|-2-2-2-------2-2-2-------4-4-4-------4-4-4---------.-.-||
D|-2-2-2-------2-2-2-------4-4-4-------4-4-4-------------||

E|-------------------------------------------------------||
B|-------4-4-4-------4-4-4-------4-4-4-------4-----------||
G|-------4-4-4-------4-4-4-------4-4-4-------.-6-4-3-----||
D|-2-2-2-------2-2-2-------4-4-4-------4-4-4---.-.-.-6-4-||
A|-2-2-2-------2-2-2-------4-4-4-------4-4-4---------.-.-||
D|-2-2-2-------2-2-2-------4-4-4-------4-4-4-------------||

E|----------------------------------------------||
B|-------4-4-4-------4-4-4-------4-4-4-------4x-||
G|-------4-4-4-------4-4-4-------4-4-4-------4x-||
D|-2-2-2-------2-2-2-------4-4-4-------4-4-4----||
A|-2-2-2-------2-2-2-------4-4-4-------4-4-4----||
D|-2-2-2-------2-2-2-------4-4-4-------4-4-4----||
Chorus
E|----------------------------------------------------------------||
B|----------------------------------------------------------------||
G|-----------------4-4-4-4-4-4-4-4-3-3-3-3-3-3-3-3-4--4-6/8-6-4-3-||
D|-----------------2-2-2-2-2-2-2-2-4-4-4-4-4-4-4-4-x--x-x-x-x-x-x-||
A|-6-6-6-6-6-6-6-6-2-2-2-2-2-2-2-2-x-x-x-x-x-x-x-x-2--2-4/6-4-2-1-||
D|-6-6-6-6-6-6-6-6-2-2-2-2-2-2-2-2-4-4-4-4-4-4-4-4----------------||
   . . . . . . . .
E|-----------------------------------------------------------------||
B|-----------------------------------------------------------------||
G|-----------------4-4-4-4-4-4-4-4-3-3-3-3-3-3-3-3-4-4-4-4-3-3-3-3-||
D|-9-9-9-9-9-9-9-9-2-2-2-2-2-2-2-2-4-4-4-4-4-4-4-4-4-4-4-4-4-4-4-4-||
A|-6-6-6-6-6-6-6-6-2-2-2-2-2-2-2-2-x-x-x-x-x-x-x-x-2-2-2-2-1-1-1-1-||
D|-6-6-6-6-6-6-6-6-2-2-2-2-2-2-2-2-4-4-4-4-4-4-4-4-----------------||

E|----------------------------------------------------------------||
B|----------------------------------------------------------------||
G|-----------------4-4-4-4-4-4-4-4-3-3-3-3-3-3-3-3-4--4-6/8-6-4-3-||
D|-9-9-9-9-9-9-9-9-2-2-2-2-2-2-2-2-4-4-4-4-4-4-4-4-x--x-x-x-x-x-x-||
A|-6-6-6-6-6-6-6-6-2-2-2-2-2-2-2-2-x-x-x-x-x-x-x-x-2--2-4/6-4-2-1-||
D|-6-6-6-6-6-6-6-6-2-2-2-2-2-2-2-2-4-4-4-4-4-4-4-4----------------||

E|-------------------------------------------------||
B|-------------------------------------------------||
G|-----------------4-4-4-4-4-4-4-4-3-3-3-3-3-3-3-3-||
D|-9-9-9-9-9-9-9-9-2-2-2-2-2-2-2-2-4-4-4-4-4-4-4-4-||
A|-6-6-6-6-6-6-6-6-2-2-2-2-2-2-2-2-x-x-x-x-x-x-x-x-||
D|-6-6-6-6-6-6-6-6-2-2-2-2-2-2-2-2-4-4-4-4-4-4-4-4-||
Acoustic Chorus Ending
E|----------------||
B|-----------5~---||
G|-8~---6~---4~---||
D|-9~---8~---6~---||
A|----------------||
D|----------------||

--------
Guitar 2
--------

Intro
E|-----------------------------------------------------------------||
B|-----------------------------------------------------------------||
G|-------3h4r3-----------3h4r3-----------3h4r3-----------3h4r3-----||
D|-6-6-6-------4---6-6-6-------4---2-2-2-------4---4-4-4-------4/6-||
A|-6-6-6---------6-6-6-6---------6-2-2-2---------6-4-4-4-----------||
D|-6-6-6-----------6-6-6-----------2-2-2-----------4-4-4-----------||

E|-----------------------------------------------------------------||
B|-----------------------------------------------------------------||
G|-------3h4r3-----------3h4r3-----------3h4r3-----------3h4r3-----||
D|-6-6-6-------4---6-6-6-------4---2-2-2-------4---4-4-4-------4/6-||
A|-6-6-6---------6-6-6-6---------6-2-2-2---------6-4-4-4-----------||
D|-6-6-6-----------6-6-6-----------2-2-2-----------4-4-4-----------||
Verse
E|-----------------------------------------||
B|-----------------------------------------||
G|-----------------------------------------||
D|-6-66-6/---6-66-6/---2-22-2/---4-44-4/---||
A|-6-66-6/---6-66-6/---2-22-2/---4-44-4/---||
D|-6-66-6/---6-66-6/---2-22-2/---4-44-4/---||

E|-------------------------------------------------------------||
B|---------444444----------444444--555-444---------------------||
G|-111-333---------111-333-----------------444444--444-333-----||
D|---------------------------------------------------------333-||
A|-------------------------------------------------------------||
D|-------------------------------------------------------------||
Pre Chorus (slow part)
E|----------------------------||
B|--------------------12-11-9-||
G|------11-9-8---11-----------||
D|---9------------------------||
A|-7---7--------9---9---------||
D|----------------------------||

E|----------------------------||
B|--------------------12-11-9-||
G|------11-9-8---11-----------||
D|---9------------------------||
A|-7---7--------9---9---------||
D|----------------------------||
Chorus
E|-----------------------------------------------------------------------------------||
B|---------------------------------11h12r11----14r12r11--12r11-----------------------||
G|-----------------4-4-4-4-4-4-4-4----------13---------13-----13r11-8-9-8-9/11-9-8-6-||
D|-9-9-9-9-9-9-9-9-2-2-2-2-2-2-2-2---------------------------------------------------||
A|-6-6-6-6-6-6-6-6-2-2-2-2-2-2-2-2---------------------------------------------------||
D|-6-6-6-6-6-6-6-6-2-2-2-2-2-2-2-2---------------------------------------------------||

E|-------------------------------------------------------------------------------||
B|-11h12r11--11----------11h12r11--11----------11h12r11----14r12r11--12r11-------||
G|---------13----11-13x----------13----11-13x-----------13---------13-----13r11x-||
D|-------------13--------------------13------------------------------------------||
A|-------------------------------------------------------------------------------||
D|-------------------------------------------------------------------------------||
Verse
E|-----------------------------------------||
B|-----------------------------------------||
G|-----------------------------------------||
D|-6-66-6/---6-66-6/---2-22-2/---4-44-4/---||
A|-6-66-6/---6-66-6/---2-22-2/---4-44-4/---||
D|-6-66-6/---6-66-6/---2-22-2/---4-44-4/---||

E|-------------------------------------------------------------||
B|---------444444----------444444--555-444---------------------||
G|-111-333---------111-333-----------------444444--444-333-----||
D|---------------------------------------------------------333-||
A|-------------------------------------------------------------||
D|-------------------------------------------------------------||
Pre Chorus (slow part)
Distorted Guitar Rings Out Like This
E|------||
B|------||
G|-^----||
D|-6~~/-||
A|------||
D|------||
(Clean)
E|----------------------------||
B|--------------------12-11-9-||
G|------11-9-8---11-----------||
D|---9------------------------||
A|-7---7--------9---9---------||
D|----------------------------||

E|----------------------------||
B|--------------------12-11-9-||
G|------11-9-8---11-----------||
D|---9------------------------||
A|-7---7--------9---9---------||
D|----------------------------||
Chorus
E|-----------------------------------------------------------------------------------------------||
B|-11h12r11--11----------11h12r11--11----------11h12r11----14r12r11--12r11-----------------------||
G|---------13----11-13x----------13----11-13x-----------13---------13-----13r11-8-9-8-9/11-9-8-6-||
D|-------------13--------------------13----------------------------------------------------------||
A|-----------------------------------------------------------------------------------------------||
D|-----------------------------------------------------------------------------------------------||

E|------------------------------------------------------------------------------||
B|-11h12r11--11----------11h12r11--11----------11h12r11----14r12r11--12r11------||
G|---------13----11-13x----------13----11-13x-----------13---------13-----13r11-||
D|-------------13--------------------13-----------------------------------------||
A|------------------------------------------------------------------------------||
D|------------------------------------------------------------------------------||
Bridge
E|-------------------------------------------------------||
B|-------------------------------------------------------||
G|-------------------------------------------------------||
D|-2-2-2-------2-2-2-------4-4-4-------4-4-4-4-2-1-------||
A|-2-2-2-------2-2-2-------4-4-4-------4-4-4-.-.-.-4-2-1-||
D|-2-2-2-------2-2-2-------4-4-4-------4-4-4-------.-.-.-||

E|-------------------------------------------------------||
B|-------------------------------------------------------||
G|-------------------------------------------------------||
D|-2-2-2-------2-2-2-------4-4-4-------4-4-4-4-2-1-------||
A|-2-2-2-------2-2-2-------4-4-4-------4-4-4-.-.-.-4-2-1-||
D|-2-2-2-------2-2-2-------4-4-4-------4-4-4-------.-.-.-||

E|-------------------------------------------------------||
B|-------4-4-4-------4-4-4-------4-4-4-------------------||
G|-------4-4-4-------4-4-4-------4-4-4-------------------||
D|-2-2-2-x-x-x-2-2-2-x-x-x-4-4-4-x-x-x-4-4-4-4-2-1-------||
A|-2-2-2-2-2-2-2-2-2-2-2-2-4-4-4-2-2-2-4-4-4-.-.-.-4-2-1-||
D|-2-2-2-------2-2-2-------4-4-4-------4-4-4-------.-.-.-||

E|--------------------------------------------||
B|-------4-4-4-------4-4-4-------4-4-4--------||
G|-------4-4-4-------4-4-4-------4-4-4--------||
D|-2-2-2-x-x-x-2-2-2-x-x-x-4-4-4-x-x-x-4-4-4x-||
A|-2-2-2-2-2-2-2-2-2-2-2-2-4-4-4-2-2-2-4-4-4x-||
D|-2-2-2-------2-2-2-------4-4-4-------4-4-4x-||
Chorus
E|-----------------------------------------------------------------------------------------------||
B|-----------------------11h12r11--11----------11h12r11----14r12r11--12r11-----------------------||
G|-------------------------------13----11-13x-----------13---------13-----13r11-8-9-8-9/11-9-8-6-||
D|-----------------------------------13----------------------------------------------------------||
A|-----------------------------------------------------------------------------------------------||
D|-----------------------------------------------------------------------------------------------||

E|-----------------------------------------------------------------------------------------------||
B|-11h12r11--11----------11h12r11--11----------11h12r11----14r12r11--12r11-----------------------||
G|---------13----11-13x----------13----11-13x-----------13---------13-----13r11-8-9-8-9/11-9-8-6-||
D|-------------13--------------------13----------------------------------------------------------||
A|-----------------------------------------------------------------------------------------------||
D|-----------------------------------------------------------------------------------------------||
Last Chorus
E|------------------------------------------------------------------------------------------||
B|-12r11------12r11------12r11------12r11-------16r14------16r14------16r14------16r14------||
G|------13r11------13r11------13r11------13r11-------16r15------16r15------16r15------16r15-||
D|------------------------------------------------------------------------------------------||
A|------------------------------------------------------------------------------------------||
D|------------------------------------------------------------------------------------------||

E|-------------------------------------------------------------||
B|-19r17-----19r17------19r17------19r17-----------------------||
G|------20r18-----20r18------20r18------20r18-8-9-8-9/11-9-8-6-||
D|-------------------------------------------------------------||
A|-------------------------------------------------------------||
D|-------------------------------------------------------------||

E|------------------------------------------------------------------------------------------||
B|-12r11------12r11------12r11------12r11-------16r14------16r14------16r14------16r14------||
G|------13r11------13r11------13r11------13r11-------16r15------16r15------16r15------16r15-||
D|------------------------------------------------------------------------------------------||
A|------------------------------------------------------------------------------------------||
D|------------------------------------------------------------------------------------------||

E|---------------------------------------------||
B|-19r17-----19r17------19r17------19r17-------||
G|------20r18-----20r18------20r18------20r18x-||
D|---------------------------------------------||
A|---------------------------------------------||
D|---------------------------------------------||



-------------------------
3.A  S I M P L E  L I N E
-------------------------

Tuning:Drop D

--------
Guitar 1
--------

Intro *note:it sounds like they are using octave chords here so i think this is
played on a 12 string guitar
E|------------------------------||
B|------------------------------||
G|------------------------------||
D|-----5----------------------2-||
A|---3-----3-5-3---5------3h5---||
D|-2-----3-------5---5-7x-------||

E|------------------||
B|------------------||
G|------------------||
D|-----5---------5~-||
A|---3-----3-5-3-5~-||
D|-2-----3-------5~-||
Verse-this might just be bass but these are the chords
E|--------------------------------------------------||
B|--------------------------------------------------||
G|--------------------------------------------------||
D|-7-7-7-7-7-7-101010101010-3-3-3-3-3-3-5-5-5-5-5-6-||
A|-7-7-7-7-7-7-101010101010-3-3-3-3-3-3-5-5-5-5-5-6-||
D|-7-7-7-7-7-7-101010101010-3-3-3-3-3-3-5-5-5-5-5-6-||
   . . . . . .  . . . . . . . . . . . . . . . . . .
E|--------------------------------------------------||
B|--------------------------------------------------||
G|--------------------------------------------------||
D|-7-7-7-7-7-7-101010101010-3-3-3-3-3-3-5-5-5-5-5-6-||
A|-7-7-7-7-7-7-101010101010-3-3-3-3-3-3-5-5-5-5-5-6-||
D|-7-7-7-7-7-7-101010101010-3-3-3-3-3-3-5-5-5-5-5-6-||
   . . . . . .  . . . . . . . . . . . . . . . . . 
E|--------------------------------------------------||
B|--------------------------------------------------||
G|--------------------------------------------------||
D|-7-7-7-7-7-7-101010101010-3-3-3-3-3-3-5-5-5-5-5-6-||
A|-7-7-7-7-7-7-101010101010-3-3-3-3-3-3-5-5-5-5-5-6-||
D|-7-7-7-7-7-7-101010101010-3-3-3-3-3-3-5-5-5-5-5-6-||
   . .     .    . .   . .   . . . . . . . . . . . 
E|--------------------------------------------------||
B|--------------------------------------------------||
G|--------------------------------------------------||
D|-7-7-7-7-7-7-101010101010-3-3-3-3-3-3-5-5-5-5-5-5-||
A|-7-7-7-7-7-7-101010101010-3-3-3-3-3-3-5-5-5-5-5-5-||
D|-7-7-7-7-7-7-101010101010-3-3-3-3-3-3-5-5-5-5-5-5-||
   . .     .    . .   . .   . . . . . . . . . . . .
Pre Chorus
E|-----------------------------------------------------------------------||
B|-----------------------------------------------------------------------||
G|-----------------------------------------------------------------------||
D|-3-3-5-5-7-7-7-7---3-3-5-5-7-7-7-7---3-3-5-5-7-7-7-7---5-5-5-5-3-3-3-3-||
A|-3-3-5-5-7-7-7-7---3-3-5-5-7-7-7-7---3-3-5-5-7-7-7-7---5-5-5-5-3-3-3-3-||
D|-3-3-5-5-7-7-7-7---3-3-5-5-7-7-7-7---3-3-5-5-7-7-7-7---4-4-4-4-3-3-3-3-||
Chorus
E|-----------------------------||
B|-----------------------------||
G|-----------------------------||
D|-----3---------------------0-||
A|---1-----1-3-1---3-----1h3---||
D|-0-----1-------3---3-5-------||

E|-----------------------------||
B|-----------------------------||
G|-----------------------------||
D|-----3---------------------0-||
A|---1-----1-3-1---3-----1h3---||
D|-0-----1-------3---3-5-------||

E|-----------------------------||
B|-----------------------------||
G|-----------------------------||
D|-----3---------------------8-||
A|---1-----1-3-1---3-----5-----||
D|-0-----1-------3---3-4-------||

E|-----------------------||
B|-----------------------||
G|-----------------------||
D|---------------3~----4-||
A|---5-----1-3-1-3~----4-||
D|-5---5-1-------3~----4-||
Verse
E|-------------------------------------------------||
B|-------------------------------------------------||
G|-------------------------------------------------||
D|-5-5-5-5-5-5-8-8-8-8-8-8-1-1-1-1-1-1-3-3-3-3-3-4-||
A|-5-5-5-5-5-5-8-8-8-8-8-8-1-1-1-1-1-1-3-3-3-3-3-4-||
D|-5-5-5-5-5-5-8-8-8-8-8-8-1-1-1-1-1-1-3-3-3-3-3-4-||
   . . . . . . . . . . . . . . . . . . . . . . . .
E|-------------------------------------------------||
B|-------------------------------------------------||
G|-------------------------------------------------||
D|-5-5-5-5-5-5-8-8-8-8-8-8-1-1-1-1-1-1-3-3-3-3-3-4-||
A|-5-5-5-5-5-5-8-8-8-8-8-8-1-1-1-1-1-1-3-3-3-3-3-4-||
D|-5-5-5-5-5-5-8-8-8-8-8-8-1-1-1-1-1-1-3-3-3-3-3-4-||
   . . . . . . . . . . . . . . . . . . . . . . .
E|-------------------------------------------------||
B|-------------------------------------------------||
G|-------------------------------------------------||
D|-5-5-5-5-5-5-8-8-8-8-8-8-1-1-1-1-1-1-3-3-3-3-3-4-||
A|-5-5-5-5-5-5-8-8-8-8-8-8-1-1-1-1-1-1-3-3-3-3-3-4-||
D|-5-5-5-5-5-5-8-8-8-8-8-8-1-1-1-1-1-1-3-3-3-3-3-4-||
   . .     .   . .     .   . . . . . . . . . . .
E|-------------------------------------------------||
B|-------------------------------------------------||
G|-------------------------------------------------||
D|-5-5-5-5-5-5-8-8-8-8-8-8-1-1-1-1-1-1-3-3-3-3-3-3-||
A|-5-5-5-5-5-5-8-8-8-8-8-8-1-1-1-1-1-1-3-3-3-3-3-3-||
D|-5-5-5-5-5-5-8-8-8-8-8-8-1-1-1-1-1-1-3-3-3-3-3-3-||
   . .     .   . .     .   . . . . . . . . . . .
E|--------------------------------------------------------------------||
B|--------------------------------------------------------------------||
G|--------------------------------------------------------------------||
D|-1-1-3-3-5-5-5-5--1-1-3-3-5-5-5-5--1-1-3-3-5-5-5-5--3-3-3-3-1-1-1-1-||
A|-1-1-3-3-5-5-5-5--1-1-3-3-5-5-5-5--1-1-3-3-5-5-5-5--3-3-3-3-1-1-1-1-||
D|-1-1-3-3-5-5-5-5--1-1-3-3-5-5-5-5--1-1-3-3-5-5-5-5--2-2-2-2-1-1-1-1-||
Chorus
E|-----------------------------||
B|-----------------------------||
G|-----8---------------------5-||
D|---6-----6-8-6---8-----6h8---||
A|-3-----4-------6---6-8-------||
D|-----------------------------||

E|-----------------------------||
B|-----------------------------||
G|-----8---------------------5-||
D|---6-----6-8-6---8-----6h8---||
A|-3-----4-------6---6-8-------||
D|-----------------------------||

E|-----------------------------||
B|-----------------------------||
G|-----8--------------------12-||
D|---6-----6-8-6---8-----10----||
A|-3-----4-------6---6-7-------||
D|-----------------------------||

E|------------------------------||
B|------------------------------||
G|----------------8-8-8-8-8-8-8-||
D|---10-----6-8-6-8-8-8-8-8-8-8-||
A|-8----8-4-------6-6-6-6-6-6-6-||
D|------------------------------||
Bridge
E|-------------------------------------------------||
B|-------------------------------------------------||
G|-------------------------------------------------||
D|-3-------------3-------------3-------------3-3-5-||
A|-3-------------3-------------3-------------3-3-5-||
D|-3-3-3-3h5r3r0-3-3-3-3h5r3r0-3-3-3-3h5r3r0-3-3-5-||
     . .           . .           . .
E|--------------------------------------------||
B|--------------------------------------------||
G|--------------------------------------------||
D|-6-6-6-6-6-6-10101010-----------------------||
A|-6-6-6-6-6-6-10101010-----------------------||
D|-6-6-6-6-6-6-10101010-10h11r10-8h10r8-6h8r6-||

E|-------------------------------------------------||
B|-------------------------------------------------||
G|-------------------------------------------------||
D|-3-------------3-------------3-------------3-3-5-||
A|-3-------------3-------------3-------------3-3-5-||
D|-3-3-3-3h5r3r0-3-3-3-3h5r3r0-3-3-3-3h5r3r0-3-3-5-||
     . .           . .           . .
E|--------------------------------------------||
B|--------------------------------------------||
G|--------------------------------------------||
D|-6-6-6-6-6-6-10101010-----------------------||
A|-6-6-6-6-6-6-10101010-----------------------||
D|-6-6-6-6-6-6-10101010-10h11r10-8h10r8-6h8r6-||

E|-------------------------------------------------||
B|-------------------------------------------------||
G|-------------------------------------------------||
D|-3-------------3-------------3-------------3-3-5-||
A|-3-------------3-------------3-------------3-3-5-||
D|-3-3-3-3h5r3r0-3-3-3-3h5r3r0-3-3-3-3h5r3r0-3-3-5-||
     . .           . .           . .
E|------------------------------||
B|------------------------------||
G|------------------------------||
D|-6-6-6-6-6-6-1010101010101010-||
A|-6-6-6-6-6-6-1010101010101010-||
D|-6-6-6-6-6-6-1010101010101010-||

E|-----------------------------------------||
B|-----------------------------------------||
G|-6-6-6-6-6-------------------------------||
D|-6-6-6-6-6-1-1-1-1-1-3-3-3-3-3-3-3-3-3-3-||
A|-4-4-4-4-4-1-1-1-1-1-3-3-3-3-3-3-3-3-3-3-||
D|-----------1-1-1-1-1-3-3-3-3-3-3-3-3-3-3-||

E|-----------------------------------------||
B|-----------------------------------------||
G|-6-6-6-6-6-------------------------------||
D|-6-6-6-6-6-1-1-1-1-1-3-3-3-3-3-3-3-3-3-3-||
A|-4-4-4-4-4-1-1-1-1-1-3-3-3-3-3-3-3-3-3-3-||
D|-----------1-1-1-1-1-3-3-3-3-3-3-3-3-3-3-||

E|-----------------------------------------||
B|-----------------------------------------||
G|-6-6-6-6-6-------------------------------||
D|-6-6-6-6-6-1-1-1-1-1-3-3-3-3-3-3-3-3-3-3-||
A|-4-4-4-4-4-1-1-1-1-1-3-3-3-3-3-3-3-3-3-3-||
D|-----------1-1-1-1-1-3-3-3-3-3-3-3-3-3-3-||

*Guitar 3(listen when the bridge starts to pick up speed)
G|-6~--------3~--------5~------------------||

E|-------------------------------------------||
B|-------------------------------------------||
G|-6-6-6-6-6---------------------------------||
D|-6-6-6-6-6-1-1-1-1-1-3x-3x-3x-3x-33x-5x-5x-||
A|-4-4-4-4-4-1-1-1-1-1-3x-3x-3x-3x-33x-5x-5x-||
D|-----------1-1-1-1-1-3x-3x-3x-3x-33x-5x-5x-||
Chorus
E|-----------------------------||
B|-----------------------------||
G|-----------------------------||
D|-----3---------------------0-||
A|---1-----1-3-1---3-----1h3---||
D|-0-----1-------3---3-5-------||

E|-----------------------------||
B|-----------------------------||
G|-----------------------------||
D|-----3---------------------0-||
A|---1-----1-3-1---3-----1h3---||
D|-0-----1-------3---3-5-------||

E|-----------------------------||
B|-----------------------------||
G|-----------------------------||
D|-----3---------------------8-||
A|---1-----1-3-1---3-----5-----||
D|-0-----1-------3---3-4-------||

E|-------------------------||
B|-------------------------||
G|-------------------------||
D|---------------3-3-3-3-3-||
A|---5-----1-3-1-3-3-3-3-3-||
D|-5---5-1-------3-3-3-3-3-||
Outro
E|---------------------------------------------------------||
B|---------------------------------------------------------||
G|---------------------------------------------------------||
D|-5-------------5-------------5-------------5-------------||
A|-5-------------5-------------5-------------5-------------||
D|-5-5-5-5h7r5r0-5-5-5-5h7r5r0-5-5-5-5h7r5r0-5-5-5-5h7r5r0-||
     . .           . .           . .           . .
E|------------------------------------------------------------||
B|------------------------------------------------------------||
G|------------------------------------------------------------||
D|-5-------------5-------------5-------------5-------------5~-||
A|-5-------------5-------------5-------------5-------------5~-||
D|-5-5-5-5h7r5r0-5-5-5-5h7r5r0-5-5-5-5h7r5r0-5-5-5-5h7r5r0-5~-||
     . .           . .           . .           . .

--------
Guitar 2
--------

Silent for Intro

Verse
E|---------------------------------------------------||
B|-----5-----------5-----------6---------------------||
G|---5-.-5-----5-5-.-5-------5-.-5-------5-7-5-7-5-8-||
D|-7-.---.-7/--.-.---.-5/--7-.---.-7/--5-.-.-.-.-.-6-||
A|-.-----------------------.-----------.-------------||
D|---------------------------------------------------||

E|---------------------------------------------------||
B|-----5-----------5-----------6---------------------||
G|---5-.-5-----5-5-.-5-------5-.-5-------5-7-5-7-5-8-||
D|-7-.---.-7/--.-.---.-5/--7-.---.-7/--5-.-.-.-.-.-6-||
A|-.-----------------------.-----------.-------------||
D|---------------------------------------------------||

E|-------------------------------------------------------------------||
B|---------------------------------------------6---------------------||
G|-------------------------------------------5-.-5-------5-7-5-7-5-8-||
D|-7-7-7-7r5-------------------------------7-.---.-7/--5-.-.-.-.-.-6-||
A|-.-.-.------7-7-7-7r5--3-3-3-3h5--3-5-3--.-----------.-------------||
D|------------.-.-.------.-.-.------.-.------------------------------||

E|-------------------------------------------------------------xxxx-||
B|---------------------------------------------6---------------xxxx-||
G|-------------------------------------------5-.-5-------5-7-5-xxxx-||
D|-7-7-7-7r5-------------------------------7-.---.-7/--5-.-.-.-xxxx-||
A|-.-.-.------7-7-7-7r5--3-3-3-3h5--3-5-3--.-----------.-------xxxx-||
D|------------.-.-.------.-.-.------.-.------------------------xxxx-||
Pre Chorus
E|----------------------------------------------------------------------||
B|-1313121210101010--1313121210101010--1313121210101010--1313121210/8-8-||
G|--x-x-x-x-x-x-x-x---x-x-x-x-x-x-x-x---x-x-x-x-x-x-x-x---x-x-x-x-x-x-x-||
D|-1010-9-9-7-7-7-7--1010-9-9-7-7-7-7--1010-9-9-7-7-7-7--1010-9-9-7/5-5-||
A|----------------------------------------------------------------------||
D|----------------------------------------------------------------------||
Chorus*this is hard to hear so listen closely...this part is easiest to hear
if you listen to the 3rd chorus
E|-13131313-------------------------------||
B|----------88888888-11111010-------------||
G|---------------------------101010101010-||
D|----------------------------------------||
A|----------------------------------------||
D|----------------------------------------||

E|-13131313------------------------101010-||
B|----------88888888-11111010-------------||
G|---------------------------101010-------||
D|----------------------------------------||
A|----------------------------------------||
D|----------------------------------------||

E|-13131313-----------------------------||
B|----------88888888-111110108887777777-||
G|--------------------------------------||
D|--------------------------------------||
A|--------------------------------------||
D|--------------------------------------||

E|-------------------------||
B|-88888888-111110~----11~-||
G|-------------------------||
D|-------------------------||
A|-------------------------||
D|-------------------------||
Verse
E|------------------------------------------------------------------------------||
B|------------------------------------------------------------------------------||
G|------------------------------------------------------------------------------||
D|-5-5-5-5r3------------------------------5-5-5-5r3-----------------------------||
A|-.-.-.------5-5-5-5r3--1-1-1-1h3-1-3-1--.-.-.------5-5-5-5r3--1-1-1-1h3-1-3-1-||
D|------------.-.-.------.-.-.-----.-.---------------.-.-.------.-.-.-----.-.---||

E|------------------------------------------------------------------------------||
B|------------------------------------------------------------------------------||
G|------------------------------------------------------------------------------||
D|-5-5-5-5r3------------------------------5-5-5-5r3-----------------------------||
A|-.-.-.------5-5-5-5r3--1-1-1-1h3-1-3-1--.-.-.------5-5-5-5r3--1-1-1-1h3-1-3-1-||
D|------------.-.-.------.-.-.-----.-.---------------.-.-.------.-.-.-----.-.---||

E|-----------------------------------------------------------------------------||
B|-------------------------------------------------------4---------------------||
G|-----------------------------------------------------3-.-3-------3-5-3-5-3-6-||
D|-5-5-5-5r3------------------------------5-5-5-5r3--5-.---.-5/--3-.-.-.-.-.-4-||
A|-.-.-.------5-5-5-5r3--1-1-1-1h3-1-3-1--.-.-.------.-----------.-------------||
D|------------.-.-.------.-.-.-----.-.-----------------------------------------||

E|-----------------------------------------------------------------------xxxx-||
B|-------------------------------------------------------4---------------xxxx-||
G|-----------------------------------------------------3-.-3-------3-5-3-xxxx-||
D|-5-5-5-5r3------------------------------5-5-5-5r3--5-.---.-5/--3-.-.-.-xxxx-||
A|-.-.-.------5-5-5-5r3--1-1-1-1h3-1-3-1--.-.-.------.-----------.-------xxxx-||
D|------------.-.-.------.-.-.-----.-.-----------------------------------xxxx-||
Pre Chorus
E|----------------------------------------------------------------------||
B|-11111010-8-8-8-8--11111010-8-8-8-8--1111-6-6-8-8-8-8--11111010-8/6-6-||
G|--x-x-x-x-x-x-x-x---x-x-x-x-x-x-x-x---x-x-x-x-x-x-x-x---x-x-x-x-x-x-x-||
D|--8-8-7-7-5-5-5-5---8-8-7-7-6-6-6-6---8-8-3-3-5-5-5-5---8-8-7-7-5/3-3-||
A|----------------------------------------------------------------------||
D|----------------------------------------------------------------------||
Chorus
E|-11111111-------------------------||
B|----------66666666-999988---------||
G|-------------------------88888888-||
D|----------------------------------||
A|----------------------------------||
D|----------------------------------||

E|-11111111--------------------8888-||
B|----------66666666-999988---------||
G|-------------------------8888-----||
D|----------------------------------||
A|----------------------------------||
D|----------------------------------||


E|-11111111-------------------------||
B|----------66666666-99888666655555-||
G|----------------------------------||
D|----------------------------------||
A|----------------------------------||
D|----------------------------------||

E|-----------------------||
B|-66666666-998888888888-||
G|-----------------------||
D|-----------------------||
A|-----------------------||
D|-----------------------||
Bridge
E|-------------------------------------------------||
B|-------------------------------------------------||
G|-------------------------------------------------||
D|-3-------------3-------------3-------------3-3-5-||
A|-3-------------3-------------3-------------3-3-5-||
D|-3-3-3-3h5r3r0-3-3-3-3h5r3r0-3-3-3-3h5r3r0-3-3-5-||
     . .           . .           . .
E|--------------------------------------------||
B|--------------------------------------------||
G|--------------------------------------------||
D|-6-6-6-6-6-6-10101010-----------------------||
A|-6-6-6-6-6-6-10101010-----------------------||
D|-6-6-6-6-6-6-10101010-10h11r10-8h10r8-6h8r6-||

E|-------------------------------------------------||
B|-------------------------------------------------||
G|-------------------------------------------------||
D|-3-------------3-------------3-------------3-3-5-||
A|-3-------------3-------------3-------------3-3-5-||
D|-3-3-3-3h5r3r0-3-3-3-3h5r3r0-3-3-3-3h5r3r0-3-3-5-||
     . .           . .           . .
E|--------------------------------------------||
B|--------------------------------------------||
G|--------------------------------------------||
D|-6-6-6-6-6-6-10101010-----------------------||
A|-6-6-6-6-6-6-10101010-----------------------||
D|-6-6-6-6-6-6-10101010-10h11r10-8h10r8-6h8r6-||

E|-------------------------------------------------||
B|---------------^-------------^-------------^-----||
G|---------------5-------------5-------------5----||
D|-3-------------*-------------*-------------*-3-5-||
A|-3-------------------------------------------3-5-||
D|-3-3-3-3h5r3r0---3-3-3h5r3r0---3-3-3h5r3r0---3-5-||
     . .           . .           . .
E|------------------------------||
B|------------------------------||
G|------------------------------||
D|-6-6-6-6-6-6-1010101010101010-||
A|-6-6-6-6-6-6-1010101010101010-||
D|-6-6-6-6-6-6-1010101010101010-||
Solo
E|----------------------------------------------||
B|-9-8--------------8h9-----------8h9r8---------||
G|-----10-8----8-10--------8-10-8-------10-8----||
D|----------10-.--.-----10-------------------10-||
A|----------------------------------------------||
D|----------------------------------------------||

E|----------------------------------------------||
B|/9-8--------------8h9-----------8h9r8---------||
G|-----10-8----8-10--------8-10-8-------10-8----||
D|----------10-.--.-----10-------------------10-||
A|----------------------------------------------||
D|----------------------------------------------||

E|------------------------------------------------------------------------||
B|-------13h16/18r16--13h14-13-11--------------13h16/18r16-13h14-13-11-13-||
G|-10/13-------------------------13-12--10/13-----------------------------||
D|------------------------------------------------------------------------||
A|------------------------------------------------------------------------||
D|------------------------------------------------------------------------||

E|---------------------------------------------------------------||
B|-------13h16/18r16-13h14-13-11--------10-10-10-10-1010-11-/18\-||
G|-10/13-------------------------13-12---------------------------||
D|---------------------------------------------------------------||
A|---------------------------------------------------------------||
D|---------------------------------------------------------------||
Chorus
E|-13131313-------------------------------||
B|----------88888888-11111010-------------||
G|---------------------------101010101010-||
D|----------------------------------------||
A|----------------------------------------||
D|----------------------------------------||

E|-13131313------------------------101010-||
B|----------88888888-11111010-------------||
G|---------------------------101010-------||
D|----------------------------------------||
A|----------------------------------------||
D|----------------------------------------||

E|-13131313-----------------------------||
B|----------88888888-111110108887777777-||
G|--------------------------------------||
D|--------------------------------------||
A|--------------------------------------||
D|--------------------------------------||

E|---------------------------||
B|-88888888-111110101010-11x-||
G|---------------------------||
D|---------------------------||
A|---------------------------||
D|---------------------------||
Outro
E|---------------------------------------------------------||
B|---------------------------------------------------------||
G|---------------------------------------------------------||
D|-5-------------5-------------5-------------5-------------||
A|-5-------------5-------------5-------------5-------------||
D|-5-5-5-5h7r5r0-5-5-5-5h7r5r0-5-5-5-5h7r5r0-5-5-5-5h7r5r0-||
     . .           . .           . .           . .
E|------------------------------------------------------------||
B|------------------------------------------------------------||
G|------------------------------------------------------------||
D|-8-------------8-------------8-------------8-------------8~-||
A|------------------------------------------------------------||
D|---5-5-5h7r5r0---5-5-5h7r5r0---5-5-5h7r5r0---5-5-5h7r5r0----||
     . .           . .           . .           . .



----------------------
4.I N T E R L U D E  1
----------------------

Tuning:Drop D

--------
Guitar 1
--------

E|------------------------------------------------||
B|------------------------------------------------||
G|------------------------------------------------||
D|-------------3-3-3x---------------------3-3-3x--||
A|-------------3-3-3x---------------------3-3-3x--||
D|-------------3-3-3x---------------------3-3-3x--||

E|------------------------------------------------||
B|------------------------------------------------||
G|------------------------------------------------||
D|-------------3-3-3x---------------------3-3-3x--||
A|-------------3-3-3x---------------------3-3-3x--||
D|-------------3-3-3x---------------------3-3-3x--||

E|------------------------------------------------||
B|------------------------------------------------||
G|------------------------------------------------||
D|-------------3-3-3x---------------------3-3-3x--||
A|-------------3-3-3x---------------------3-3-3x--||
D|-------------3-3-3x---------------------3-3-3x--||

E|------------------------------------------------||
B|------------------------------------------------||
G|------------------------------------------------||
D|-------------3-3-3x---------------------3-3-3x--||
A|-------------3-3-3x---------------------3-3-3x--||
D|-------------3-3-3x---------------------3-3-3x--||

E|---------------------------------||
B|---------------------------------||
G|-----3-------0-------2-------5---||
D|---3-------3-------3---2-3-2---0-||
A|-1-----1-3-----3-5---------------||
D|---------------------------------||

E|---------------------------------||
B|---------------------------------||
G|-----3-------0-------2-------5---||
D|---3-------3-------3---2-3-2---0-||
A|-1-----1-3-----3-5---------------||
D|---------------------------------||

E|---------------------------------||
B|---------------------------------||
G|-----3-------0-------2-------5---||
D|---3-------3-------3---2-3-2---0-||
A|-1-----1-3-----3-5---------------||
D|---------------------------------||

E|---------------------------------||
B|---------------------------------||
G|-----3-------0-------------------||
D|---3-------3---------------------||
A|-1-----1-3-----3-5~--------------||
D|-----------------0~--------------||

--------
Guitar 2
--------

E|--------------------------------------3---------||
B|-/6---/10----10-/11-10------------3-6---6-5-3-5-||
G|----7-----10-----------12-10/---3---------------||
D|------------------------------------------------||
A|------------------------------------------------||
D|------------------------------------------------||

E|--------------------------------------3---------||
B|-/6---/10----10-/11-10------------3-6---6-5-3-5-||
G|----7-----10-----------12-10/---3---------------||
D|------------------------------------------------||
A|------------------------------------------------||
D|------------------------------------------------||

E|--------------------------------------3---------||
B|-/6---/10----10-/11-10------------3-6---6-5-3-5-||
G|----7-----10-----------12-10/---3---------------||
D|------------------------------------------------||
A|------------------------------------------------||
D|------------------------------------------------||

E|--------------------------------------3---------||
B|-/6---/10----10-/11-10------------3-6---6-5-3-5-||
G|----7-----10-----------12-10/---3---------------||
D|------------------------------------------------||
A|------------------------------------------------||
D|------------------------------------------------||

E|--------------------------------------3---------||
B|-/6---/10----10-/11-10------------3-6---6-5-3-5-||
G|----7-----10-----------12-10/---3---------------||
D|------------------------------------------------||
A|------------------------------------------------||
D|------------------------------------------------||

E|-10----/8--/10/5--------10----/8----/5-||
B|---------------------------------------||
G|---------------------------------------||
D|---------------------------------------||
A|---------------------------------------||
D|---------------------------------------||

E|-10--10/12-12/13-/8-----10----/8----/5-||
B|---------------------------------------||
G|---------------------------------------||
D|---------------------------------------||
A|---------------------------------------||
D|---------------------------------------||

--------
Guitar 3
--------
This guitar is only in the first part, it is an acoustic guitar, listen really close and you can hear the strumming


E|---------------------------------------------------||
B|---------------------------------------------------||
G|-7-7-7-7-7-7----------------3-3-3-3-3-3---------2~-||
D|-7-7-7-7-7-7-3-3-3x---------3-3-3-3-3-3-3-3-3x--2~-||
A|-5-5-5-5-5-5-3-3-3x---------1-1-1-1-1-1-3-3-3x--0~-||
D|-0-0-0-0-0-0-3-3-3x---------------------3-3-3x-----||

----------------------
5.N E V E R  L E A R N
----------------------

*i recently corrected the intro's so they should be 100% now

Tuning:Standard

--------
Guitar 1
--------

Intro
E|------------------------------------------------||
B|------------------------------------------------||
G|--------44-9-8-99-88-66-------------------------||
D|-----66-..-9-9-99-99-------------66-9-----------||
A|-444-..-------------------000-77-..-.-----99-77-||
E|-...----------------------...-..------777-..-..-||
                                        ...
E|------------------------------------------------||
B|------------------------------------------------||
G|--------44-9-8-99-88-66-------------------------||
D|-----66-..-9-9-99-99-------------66-9-----------||
A|-444-..-------------------000-77-..-.-----99-77-||
E|-...----------------------...-..------777-..-..-||
                                        ...
E|------------------------------------------------||
B|------------------------------------------------||
G|--------44-9-8-99-88-66-------------------------||
D|-----66-..-9-9-99-99-------------66-9-----------||
A|-444-..-------------------000-77-..-.-----99-77-||
E|-...----------------------...-..------777-..-..-||
                                        ...
E|------------------------------------------------||
B|------------------------------------------------||
G|--------44-9-8-99-88-66-------------------------||
D|-----66-..-9-9-99-99-------------66-9-----------||
A|-444-..-------------------000-77-..-.-----99-77-||
E|-...----------------------...-..------777-..-..-||
                                        ...
Verse
E|--------------------------------------------||
B|--------------------------------------------||
G|------------------------------4-4-4---2-2-2-||
D|---2----6----7-6-4----------4-4-4-4-2-2-2-2-||
A|-4---44----4-------7-6-4-2--2-2-2-2-0-0-0-0-||
E|-.---..----.----------------.-------.-------||

E|--------------------------------------------||
B|-------------------10-9-7-5-----------------||
G|-------------9-8-6------------4-4-4---2-2-2-||
D|---2----6-------------------4-4-4-4-2-2-2-2-||
A|-4---44----4----------------2-2-2-2-0-0-0-0-||
E|-.---..----.----------------.-------.-------||

E|--------------------------------------------||
B|--------------------------------------------||
G|------------------------------4-4-4---2-2-2-||
D|---2----6----7-6-4----------4-4-4-4-2-2-2-2-||
A|-4---44----4-------7-6-4-2--2-2-2-2-0-0-0-0-||
E|-.---..----.----------------.-------.-------||

E|--------------------------------------------||
B|-------------------10-9-7-5-----------------||
G|-------------9-8-6------------4-4-4---2-2-2-||
D|---2----6-------------------4-4-4-4-2-2-2-2-||
A|-4---44----4----------------2-2-2-2-0-0-0-0-||
E|-.---..----.----------------.-------.-------||
Pre Chorus
E|----------------------||
B|----------------------||
G|----------------------||
D|-4~---------7~----9~--||
A|-4~---------7~----9~--||
E|-2~---------5~----7~--||
Chorus
E|---------------------------------------------------------||
B|---------------------------------------------------------||
G|---------------------------------------------------------||
D|-2---2---4/6---4---4---4/6---6---6---4/6---2-1---1---2h4-||
A|-0-0---0-------2-2---2-------4-4---4-----------2---2-----||
E|---.---.---------.---.---------.---.-----------.---.-----||

E|---------------------------------------------------------||
B|---------------------------------------------------------||
G|---------------------------------------------------------||
D|-2---2---4/6---4---4---4/6---6---6---4/6---2-1---1---2h4-||
A|-0-0---0-------2-2---2-------4-4---4-----------2---2-----||
E|---.---.---------.---.---------.---.-----------.---.-----||

E|---------------------------------------------------------||
B|---------------------------------------------------------||
G|---------------------------------------------------------||
D|-2---2---4/6---4---4---4/6---6---6---4/6---2-1---1---2h4-||
A|-0-0---0-------2-2---2-------4-4---4-----------2---2-----||
E|---.---.---------.---.---------.---.-----------.---.-----||

E|---------------------------------------------------------||
B|---------------------------------------------------------||
G|---------------------------------------------------------||
D|-2---2---4/6---4---4---4/6---6---6---4/6---2-1---1---2h4-||
A|-0-0---0-------2-2---2-------4-4---4-----------2---2-----||
E|---.---.---------.---.---------.---.-----------.---.-----||
Chorus Ending
E|------------------------||
B|------------------------||
G|-4-4-4-4-4-4-4-4-4-4-4x-||
D|-4-4-4-4-4-4-4-4-4-4-4x-||
A|-2-2-2-2-2-2-2-2-2-2-2x-||
E|------------------------||
Intro
E|------------------------------------------------||
B|------------------------------------------------||
G|------------------------------------------------||
D|---------------------------------66-9-----------||
A|-(Bass)-------------------000-77-..-.-----99-77-||
E|--------------------------...-..------777-..-..-||
                                        ...
E|------------------------------------------------||
B|------------------------------------------------||
G|--------44-9-8-99-88-66-------------------------||
D|-----66-..-9-9-99-99-------------66-9-----------||
A|-444-..-------------------000-77-..-.-----99-77-||
E|-...----------------------...-..------777-..-..-||
                                        ...
E|------------------------------------------------||
B|------------------------------------------------||
G|--------44-9-8-99-88-66-------------------------||
D|-----66-..-9-9-99-99-------------66-9-----------||
A|-444-..-------------------000-77-..-.-----99-77-||
E|-...----------------------...-..------777-..-..-||
                                        ...
Verse
E|----------------------||
B|----------------------||
G|-6~---------4~----2~--||
D|-6~---------4~----2~--||
A|-4~---------2~----0~--||
E|----------------------||

E|----------------------||
B|----------------------||
G|-6~---------4~----2~--||
D|-6~---------4~----2~--||
A|-4~---------2~----0~--||
E|----------------------||

E|----------------------------------------------------||
B|----------------------------------------------------||
G|--------------------------------------------2-2-2-2-||
D|-6-------2------6-------2-4x--6-------2-1x--2-2-2-2-||
A|-4-0-2-4---4x---4-0-2-4-------4-0-2-4-------0-0-0-0-||
E|----------------------------------------------------||

E|----------------------------------------------------||
B|----------------------------------------------------||
G|--------------------------------------------2-2-2-2-||
D|-6-------2------6-------2-4x--6-------2-1x--2-2-2-2-||
A|-4-0-2-4---4x---4-0-2-4-------4-0-2-4-------0-0-0-0-||
E|----------------------------------------------------||
Pre Chorus
E|----------------------||
B|----------------------||
G|----------------------||
D|-4~---------7~----9~--||
A|-4~---------7~----9~--||
E|-2~---------5~----7~--||
Chorus
E|---------------------------------------------------------||
B|---------------------------------------------------------||
G|---------------------------------------------------------||
D|-2---2---4/6---4---4---4/6---6---6---4/6---2-1---1---2h4-||
A|-0-0---0-------2-2---2-------4-4---4-----------2---2-----||
E|---.---.---------.---.---------.---.-----------.---.-----||

E|---------------------------------------------------------||
B|---------------------------------------------------------||
G|---------------------------------------------------------||
D|-2---2---4/6---4---4---4/6---6---6---4/6---2-1---1---2h4-||
A|-0-0---0-------2-2---2-------4-4---4-----------2---2-----||
E|---.---.---------.---.---------.---.-----------.---.-----||

E|---------------------------------------------------------||
B|---------------------------------------------------------||
G|---------------------------------------------------------||
D|-2---2---4/6---4---4---4/6---6---6---4/6---2-1---1---2h4-||
A|-0-0---0-------2-2---2-------4-4---4-----------2---2-----||
E|---.---.---------.---.---------.---.-----------.---.-----||

E|---------------------------------------------------------||
B|---------------------------------------------------------||
G|---------------------------------------------------------||
D|-2---2---4/6---4---4---4/6---6---6---4/6---2-1---1---2h4-||
A|-0-0---0-------2-2---2-------4-4---4-----------2---2-----||
E|---.---.---------.---.---------.---.-----------.---.-----||
Bridge
E|-------------------------------------------||
B|-------------------------------------------||
G|-2~~~~~~~~~~~~~~----------4~~~~~~~~~--4-4x-||
D|-2~~~~~~~~~~~~~~----------4~~~~~~~~~--4-4x-||
A|-0~~~~~~~~~~~~~~----------2~~~~~~~~~--2-2x-||
E|-------------------------------------------||

E|-----------------------------------------||
B|-----------------------------------------||
G|-----------------------------------------||
D|-----------------------------------------||
A|-4----------6--2-2-2-0--------2----------||
E|----0-0h2h4-------------0-0-0----0-0h2h4-||

E|-----------------------------------------||
B|-----------------------------------------||
G|-----------------------------------------||
D|------------^----------------------------||
A|-4----------6--2-2-2-0--------2----------||
E|----0-0h2h4-*-----------0-0-0----0-0h2h4-||

E|-----------------------------------------||
B|-----------------------------------------||
G|-----------------------------------------||
D|-----------------------------------------||
A|-4----------6--2-2-2-0--------2----------||
E|----0-0h2h4-------------0-0-0----0-0h2h4-||

E|-----------------------------------------||
B|-----------------------------------------||
G|-----------------------------------------||
D|-----------------------------------------||
A|-4----------6--2-2-2-0--------2----------||
E|----0-0h2h4-------------0-0-0----0-0h2h4-||

E|-----------------------------------------||
B|-----------------------------------------||
G|-----------------------------------------||
D|-----------------------------------------||
A|-4----------6--2-2-2-0--------2----------||
E|----0-0h2h4-------------0-0-0----0-0h2h4-||

E|-----------------------------------------||
B|-----------------------------------------||
G|-----------------------------------------||
D|-----------------------------------------||
A|-4----------6--2-2-2-0--------2----------||
E|----0-0h2h4-------------0-0-0----0-0h2h4-||

E|------------------------x-x-x-||
B|------------------------x-x-x-||
G|-4-4-4----------4-4-4---x-x-x-||
D|-4-4-4-2-2-2-2--4-4-4-2-x-x-x-||
A|-2-2-2-2-2-2-2--2-2-2-2-x-x-x-||
E|-------0-0-0-0--------0-x-x-x-||
Chorus
E|---------------------------------------------------------||
B|---------------------------------------------------------||
G|---------------------------------------------------------||
D|-2---2---4/6---4---4---4/6---6---6---4/6---2-1---1---2h4-||
A|-0-0---0-------2-2---2-------4-4---4-----------2---2-----||
E|---.---.---------.---.---------.---.-----------.---.-----||

E|---------------------------------------------------------||
B|---------------------------------------------------------||
G|---------------------------------------------------------||
D|-2---2---4/6---4---4---4/6---6---6---4/6---2-1---1---2h4-||
A|-0-0---0-------2-2---2-------4-4---4-----------2---2-----||
E|---.---.---------.---.---------.---.-----------.---.-----||

E|---------------------------------------------------------||
B|---------------------------------------------------------||
G|---------------------------------------------------------||
D|-2---2---4/6---4---4---4/6---6---6---4/6---2-1---1---2h4-||
A|-0-0---0-------2-2---2-------4-4---4-----------2---2-----||
E|---.---.---------.---.---------.---.-----------.---.-----||

E|---------------------------------------------------------||
B|---------------------------------------------------------||
G|---------------------------------------------------------||
D|-2---2---4/6---4---4---4/6---6---6---4/6---2-1---1---2h4-||
A|-0-0---0-------2-2---2-------4-4---4-----------2---2-----||
E|---.---.---------.---.---------.---.-----------.---.-----||
Chorus Ending
E|------------------------------------------------||
B|------------------------------------------------||
G|-4-4-4-4-4-4-4-4-4-4-4-4-4-4-4-4-4-4-4-4-4-4-6~-||
D|-4-4-4-4-4-4-4-4-4-4-4-4-4-4-4-4-4-4-4-4-4-4-6~-||
A|-2-2-2-2-2-2-2-2-2-2-2-2-2-2-2-2-2-2-2-2-2-2-4~-||
E|------------------------------------------------||
Outro (fade out with this)
E|-----------------------------------------||
B|-----------------------------------------||
G|-----------------------------------------||
D|-----------------------------------------||
A|-4----------6--2-2-2-0--------2----------||
E|----0-0h2h4-------------0-0-0----0-0h2h4-||


--------
Guitar 2
--------

Intro
E|------------------------------------------------||
B|------------------------------------------------||
G|--------44-9-8-99-88-66-------------------------||
D|-----66-..-----------------------66-9-----------||
A|-444-..-------------------000-77-..-.-----99-77-||
E|-...----------------------...-..------777-..-..-||
                                        ...
E|------------------------------------------------||
B|-----------9-7-99-77----------------4-----------||
G|--------44-----------99----------44-------------||
D|-----66-..--------------------66-..-------77-66-||
A|-444-..-------------------000-..------777-..-..-||
E|-...----------------------...---------...-------||

E|------------------------------------------------||
B|------------------------------------------------||
G|--------44-9-8-99-88-66-------------------------||
D|-----66-..-----------------------66-9-----------||
A|-444-..-------------------000-77-..-.-----99-77-||
E|-...----------------------...-..------777-..-..-||
                                        ...
E|------------------------------------------------||
B|-----------9-7-99-77----------------4-----------||
G|--------44-----------99----------44-------------||
D|-----66-..--------------------66-..-------77-66-||
A|-444-..-------------------000-..------777-..-..-||
E|-...----------------------...---------...-------||
Verse
E|--------------------------------------------||
B|--------------------------------------------||
G|-------------6-4------------8-8-8-8-6-6-6-6-||
D|---6----9--------7-6-5------x-x-x-x-x-x-x-x-||
A|-7---77----7-----------7-6--6-6-6-6-4-4-4-4-||
E|-.---..----.----------------.-------.-------||

E|-------------------9-7----------------------||
B|-------------9-7-------10-9-----------------||
G|-----------------9----------8-8-8-8-6-6-6-6-||
D|---6----9-------------------x-x-x-x-x-x-x-x-||
A|-7---77----7----------------6-6-6-6-4-4-4-4-||
E|-.---..----.----------------.-------.-------||

E|--------------------------------------------||
B|--------------------------------------------||
G|-------------6-4------------8-8-8-8-6-6-6-6-||
D|---6----9--------7-6-5------x-x-x-x-x-x-x-x-||
A|-7---77----7-----------7-6--6-6-6-6-4-4-4-4-||
E|-.---..----.----------------.-------.-------||

E|-------------------9-7----------------------||
B|-------------9-7-------10-9-----------------||
G|-----------------9----------8-8-8-8-6-6-6-6-||
D|---6----9-------------------x-x-x-x-x-x-x-x-||
A|-7---77----7----------------6-6-6-6-4-4-4-4-||
E|-.---..----.----------------.-------.-------||
Pre Chorus
E|----------------------------------||
B|----------------------------------||
G|-1111111111111111-9-9-9-9-8-8-8-8-||
D|--x-x-x-x-x-x-x-x-x-x-x-x-x-x-x-x-||
A|--9-9-9-9-9-9-9-9-7-7-7-7-6-6-6-6-||
E|----------------------------------||
Chorus
E|---------------------------------------------------------||
B|---------------------------------------------------------||
G|---------------------------------------------------------||
D|-2---2---4/6---4---4---4/6---6---6---4/6---2-1---1---2h4-||
A|-0-0---0-------2-2---2-------4-4---4-----------2---2-----||
E|---.---.---------.---.---------.---.-----------.---.-----||

E|---------------------------------------------------------||
B|---------------------------------------------------------||
G|---------------------------------------------------------||
D|-2---2---4/6---4---4---4/6---6---6---4/6---2-1---1---2h4-||
A|-0-0---0-------2-2---2-------4-4---4-----------2---2-----||
E|---.---.---------.---.---------.---.-----------.---.-----||

E|----------------------------------------------------------||
B|------------------------------------------10-9---9---9h10-||
G|-----------------------------------------------9---9------||
D|-9---9---4/6---4---4---4/6---6---6---4/6-------.---.------||
A|-7-7---7-------2-2---2-------4-4---4----------------------||
E|---.---.---------.---.---------.---.----------------------||

E|-----------------------------------------------------------||
B|12/----------------------------------------10-9---9---9h10-||
G|------------------------------------------------9---9------||
D|------9---4/6---4---4---4/6---6---6---4/6-------.---.------||
A|----7---7-------2-2---2-------4-4---4----------------------||
E|----.---.---------.---.---------.---.----------------------||
Chorus Ending
E|---------------------------||
B|---------------------------||
G|-4-4-4-4-4-4-4-6-6-6-8-8-8-||
D|-x-x-x-x-x-x-x-x-x-x-x-x-x-||
A|-2-2-2-2-2-2-2-4-4-4-6-6-6-||
E|---------------------------||
Intro
E|-------------------------------------------------||
B|-------------------------------------4-----------||
G|----------------------------------44-------------||
D|-(Bass)------------------------66-..-------77-66-||
A|---------------------------000-..------777-..-..-||
E|---------------------------...---------...-------||

E|------------------------------------------------||
B|-----------9-7-99-77----------------4-----------||
G|--------44-----------99----------44-------------||
D|-----66-..--------------------66-..-------77-66-||
A|-444-..-------------------000-..------777-..-..-||
E|-...----------------------...---------...-------||

E|------------------------------------------------||
B|-----------9-7-99-77----------------4-----------||
G|--------44-----------99----------44-------------||
D|-----66-..--------------------66-..-------77-66-||
A|-444-..-------------------000-..------777-..-..-||
E|-...----------------------...---------...-------||
Verse
E|---------------------------------------------------------||
B|---------------------------------------------------------||
G|---------------------------------------------------------||
D|-6-6--6-6-6--6-6-6--6-6-6--6-4-4--4-4-4--4-2-2--2-2-2--2-||
A|-4-4--4-4-4--4-4-4--4-4-4--4-2-2--2-2-2--2-0-0--0-0-0--0-||
E|-.-.--.-.-.--.-.-.--.-.-.--.-.-.--.-.-.--.-.-.--.-.-.--.-||

E|---------------------------------------------------------||
B|---------------------------------------------------------||
G|---------------------------------------------------------||
D|-6-6--6-6-6--6-6-6--6-6-6--6-4-4--4-4-4--4-2-2--2-2-2--2-||
A|-4-4--4-4-4--4-4-4--4-4-4--4-2-2--2-2-2--2-0-0--0-0-0--0-||
E|-.-.--.-.-.--.-.-.--.-.-.--.-.-.--.-.-.--.-.-.--.-.-.--.-||

E|-----------------------------------------------------||
B|-----------------------------------------------------||
G|------------------------------------------11-13-11-9-||
D|---------6-------------6-7x----------6-----x--x--x-x-||
A|-7---7-9---7x--7---7-9-------7---7-9---7x--9-11--9-7-||
E|---9-------------9-------------9---------------------||

E|-----------------------------------------------------||
B|-----------------------------------------------------||
G|------------------------------------------11-13-11-9-||
D|---------6-------------6-7x----------6-----x--x--x-x-||
A|-7---7-9---7x--7---7-9-------7---7-9---7x--9-11--9-7-||
E|---9-------------9-------------9---------------------||
Pre Chorus
E|----------------------------------||
B|----------------------------------||
G|-1111111111111111-9-9-9-9-8-8-8-8-||
D|--x-x-x-x-x-x-x-x-x-x-x-x-x-x-x-x-||
A|--9-9-9-9-9-9-9-9-7-7-7-7-6-6-6-6-||
E|----------------------------------||
Chorus
E|---------------------------------------------------------||
B|---------------------------------------------------------||
G|---------------------------------------------------------||
D|-2---2---4/6---4---4---4/6---6---6---4/6---2-1---1---2h4-||
A|-0-0---0-------2-2---2-------4-4---4-----------2---2-----||
E|---.---.---------.---.---------.---.-----------.---.-----||

E|---------------------------------------------------------||
B|---------------------------------------------------------||
G|---------------------------------------------------------||
D|-2---2---4/6---4---4---4/6---6---6---4/6---2-1---1---2h4-||
A|-0-0---0-------2-2---2-------4-4---4-----------2---2-----||
E|---.---.---------.---.---------.---.-----------.---.-----||

E|----------------------------------------------------------||
B|------------------------------------------10r9---9---9h10-||
G|-----------------------------------------------9---9------||
D|-9---9---4/6---4---4---4/6---6---6---4/6-------.---.------||
A|-7-7---7-------2-2---2-------4-4---4----------------------||
E|---.---.---------.---.---------.---.----------------------||

E|-----------------------------------------------------------||
B|12/----------------------------------------10r9---9---9h10-||
G|------------------------------------------------9---9------||
D|------9---4/6---4---4---4/6---6---6---4/6-------.---.------||
A|----7---7-------2-2---2-------4-4---4----------------------||
E|----.---.---------.---.---------.---.----------------------||
Bridge
E|---------------------------------||
B|-5-4-544-5-4-544-5-4-545-7-7-7-4-||
G|-4-4-444-4-4-444-4-4-444-4-4---4-||
D|---------------------------------||
A|---------------------------------||
E|---------------------------------||

E|---------------------------------||
B|-5-4-544-5-4-544-5-4-545-7-7-7~--||
G|-4-4-444-4-4-444-4-4-444-4-4-4~--||
D|---------------------------------||
A|---------------------------------||
E|---------------------------------||

E|-----------------||
B|-5-4-544-5-4-54x-||
G|-4-4-444-4-4-44x-||
D|-----------------||
A|-----------------||
E|-----------------||

E|-----------------------------------------||
B|-----------------------------------------||
G|-----------------------------------------||
D|-----------------------------------------||
A|-4----------6--2-2-2-0--------2----------||
E|----0-0h2h4-------------0-0-0----0-0h2h4-||

E|-----------------------------------------||
B|-----------------------------------------||
G|-----------------------------------------||
D|-----------------------------------------||
A|-4----------6--2-2-2-0--------2----------||
E|----0-0h2h4-------------0-0-0----0-0h2h4-||

E|-----------------------------------------||
B|-----------------------------------------||
G|-----------------------------------------||
D|-----------------------------------------||
A|-4----------6--2-2-2-0--------2----------||
E|----0-0h2h4-------------0-0-0----0-0h2h4-||

E|-----------------------------------------||
B|-----------------------------------------||
G|-----------------------------------------||
D|-----------------------------------------||
A|-4----------6--2-2-2-0--------2----------||
E|----0-0h2h4-------------0-0-0----0-0h2h4-||
*This is probably two guitars harmonizing but you can play them together very easily
E|-----------------------------------------||
B|-9999999999-77777777-55555555-4444444444-||
G|-9999999999-88888888-66666666-4444444444-||
D|-----------------------------------------||
A|-----------------------------------------||
E|-----------------------------------------||

E|-----------------------------------------||
B|-9999999999-77777777-55555555-4444444444-||
G|-9999999999-88888888-66666666-4444444444-||
D|-----------------------------------------||
A|-----------------------------------------||
E|-----------------------------------------||

E|--------------------||
B|-4-4-5-54--4-4-5-54-||
G|-4-4-4-44--4-4-4-44-||
D|--------------------||
A|--------------------||
E|--------------------||
Chorus
E|---------------------------------------------------------||
B|---------------------------------------------------------||
G|---------------------------------------------------------||
D|-2---2---4/6---4---4---4/6---6---6---4/6---2-1---1---2h4-||
A|-0-0---0-------2-2---2-------4-4---4-----------2---2-----||
E|---.---.---------.---.---------.---.-----------.---.-----||

E|---------------------------------------------------------||
B|---------------------------------------------------------||
G|---------------------------------------------------------||
D|-2---2---4/6---4---4---4/6---6---6---4/6---2-1---1---2h4-||
A|-0-0---0-------2-2---2-------4-4---4-----------2---2-----||
E|---.---.---------.---.---------.---.-----------.---.-----||

E|----------------------------------------------------------||
B|------------------------------------------10-9---9---9h10-||
G|-----------------------------------------------9---9------||
D|-9---9---4/6---4---4---4/6---6---6---4/6-------.---.------||
A|-7-7---7-------2-2---2-------4-4---4----------------------||
E|---.---.---------.---.---------.---.----------------------||

E|-----------------------------------------------------------||
B|12/----------------------------------------10-9---9---9h10-||
G|------------------------------------------------9---9------||
D|------9---4/6---4---4---4/6---6---6---4/6-------.---.------||
A|----7---7-------2-2---2-------4-4---4----------------------||
E|----.---.---------.---.---------.---.----------------------||
Chorus Ending
E|------------------------------------------------||
B|------------------------------------------------||
G|-4-4-4-4-4-4-4-4-4-4-4-8-8-8-8-8-8-8-8-8-8-8-9~-||
D|-x-x-x-x-x-x-x-x-x-x-x-x-x-x-x-x-x-x-x-x-x-x-x--||
A|-2-2-2-2-2-2-2-2-2-2-2-6-6-6-6-6-6-6-6-6-6-6-7~-||
E|------------------------------------------------||
Outro
E|-----------------------------------------||
B|-----------------------------------------||
G|-----------------------------------------||
D|-----------------------------------------||
A|-4----------6--2-2-2-0--------2----------||
E|----0-0h2h4-------------0-0-0----0-0h2h4-||

E|-----------------------------------------||
B|-----------------------------------------||
G|-----------------------------------------||
D|-----------------------------------------||
A|-4----------6--2-2-2-0--------2----------||
E|----0-0h2h4-------------0-0-0----0-0h2h4-||
(Fade out with this)
E|-----------------------------------------||
B|-9999999999-77777777-55555555-4444444444-||
G|-9999999999-88888888-66666666-4444444444-||
D|-----------------------------------------||
A|-----------------------------------------||
E|-----------------------------------------||

E|-----------------------------------------||
B|-9999999999-77777777-55555555-4444444444-||
G|-9999999999-88888888-66666666-4444444444-||
D|-----------------------------------------||
A|-----------------------------------------||
E|-----------------------------------------||



--------------------------
6.B I T T E R  S E A S O N
--------------------------

Tuning:Standard

--------
Guitar 1
--------

Intro
E|--------------------------------------------------------------||
B|--------------------------------------------------------------||
G|-----------------5-5~-----------------------------------------||
D|--7-7~-----------5-5~----------3-3~-----------5-5~------------||
A|--7-7~-----------3-3~----------3-3~-----------5-5~------------||
E|--5-5~-------------------------1-1~-----------3-3~------------||

E|--------------------------------------------------------------||
B|--------------------------------------------------------------||
G|-----------------5-5~-----------------------------------------||
D|--7-7~-----------5-5~----------3-3~-----------5-5~------------||
A|--7-7~-----------3-3~----------3-3~-----------5-5~------------||
E|--5-5~-------------------------1-1~-----------3-3~------------||
Verse
E|--------------------------------------------------------------||
B|--------------------------------------------------------------||
G|--------------------------------------------------------------||
D|-----------------5-5---------5--------------------------------||
A|--7-7----------7-3-3---------3-3-3----------3-5-5-----------5-||
E|--5-5----------5-.-.---------.-1-1----------1-3-3-----------3-||
    . .          .               . .          . . .           .
E|--------------------------------------------------------------||
B|--------------------------------------------------------------||
G|--------------------------------------------------------------||
D|-----------------5-5---------5--------------------------------||
A|--7-7----------7-3-3---------3-5-5----------5-3-3-----------5-||
E|--5-5----------5-.-.---------.-3-3----------3-1-1-----------3-||
    . .          .               . .          . . .           .
E|--------------------------------------------------------------||
B|--------------------------------------------------------------||
G|--------------------------------------------------------------||
D|-----------------5-5---------5--------------------------------||
A|--7-7----------7-3-3---------3-3-3----------3-5-5-----------5-||
E|--5-5----------5-.-.---------.-1-1----------1-3-3-----------3-||
    . .          .               . .          . . .           .
E|--------------------------------------------------------------||
B|--------------------------------------------------------------||
G|--------------------------------------------------------------||
D|-----------------5-5---------5--------------------------------||
A|--7-7----------7-3-3---------3-5-5----------5-3-3-----------5-||
E|--5-5----------5-.-.---------.-3-3----------3-1-1-----------3-||
    . .          .               . .          . . .           .
Intro
E|--------------------------------------------------------------||
B|--------------------------------------------------------------||
G|-----------------5-5~-----------------------------------------||
D|--7-7~-----------5-5~----------3-3~-----------5-5~------------||
A|--7-7~-----------3-3~----------3-3~-----------5-5~------------||
E|--5-5~-------------------------1-1~-----------3-3~------------||

E|--------------------------------------------------------------||
B|--------------------------------------------------------------||
G|-----------------5-5~-----------------------------------------||
D|--7-7~-----------5-5~----------3-3~-----------5-5~------------||
A|--7-7~-----------3-3~----------3-3~-----------5-5~------------||
E|--5-5~-------------------------1-1~-----------3-3~------------||
Verse
E|--------------------------------------------------------------||
B|--------------------------------------------------------------||
G|--------------------------------------------------------------||
D|-----------------5-5---------5--------------------------------||
A|--7-7----------7-3-3---------3-3-3----------3-5-5-----------5-||
E|--5-5----------5-.-.---------.-1-1----------1-3-3-----------3-||
    . .          .               . .          . . .           .
E|--------------------------------------------------------------||
B|--------------------------------------------------------------||
G|--------------------------------------------------------------||
D|-----------------5-5---------5--------------------------------||
A|--7-7----------7-3-3---------3-5-5----------5-3-3-----------5-||
E|--5-5----------5-.-.---------.-3-3----------3-1-1-----------3-||
    . .          .               . .          . . .           .
E|--------------------------------------------------------------||
B|--------------------------------------------------------------||
G|--------------------------------------------------------------||
D|-----------------5-5---------5--------------------------------||
A|--7-7----------7-3-3---------3-3-3----------3-5-5-----------5-||
E|--5-5----------5-.-.---------.-1-1----------1-3-3-----------3-||
    . .          .               . .          . . .           .
E|--------------------------------------------------------------||
B|--------------------------------------------------------------||
G|--------------------------------------------------------------||
D|-----------------5-5---------5--------------------------------||
A|--7-7----------7-3-3---------3-5-5----------5-3-3-----------5-||
E|--5-5----------5-.-.---------.-3-3----------3-1-1-----------3-||
    . .          .               . .          . . .           .
Pre Chorus
E|-------------||
B|-------------||
G|-------------||
D|-3-3-3-5-5-5-||
A|-3-3-3-5-5-5-||
E|-1-1-1-3-3-3-||
Chorus
E|----------------------------------||
B|----------------------------------||
G|-5-5-5-5------------------4-4-4-4-||
D|-5-5-5-5-3-3-3-3--7-7-7-7-5-5-5-5-||
A|-3-3-3-3-3-3-3-3--7-7-7-7-5-5-5-5-||
E|---------1-1-1-1--5-5-5-5-3-3-3-3-||

E|----------------------------------||
B|----------------------------------||
G|-5-5-5-5------------------4-4-4-4-||
D|-5-5-5-5-3-3-3-3--7-7-7-7-5-5-5-5-||
A|-3-3-3-3-3-3-3-3--7-7-7-7-5-5-5-5-||
E|---------1-1-1-1--5-5-5-5-3-3-3-3-||

E|----------------------------------||
B|----------------------------------||
G|-5-5-5-5------------------4-4-4-4-||
D|-5-5-5-5-3-3-3-3--7-7-7-7-5-5-5-5-||
A|-3-3-3-3-3-3-3-3--7-7-7-7-5-5-5-5-||
E|---------1-1-1-1--5-5-5-5-3-3-3-3-||

E|----------------------------------||
B|----------------------------------||
G|-5-5-5-5------------------4-4-4-4-||
D|-5-5-5-5-3-3-3-3--7-7-7-7-5-5-5-5-||
A|-3-3-3-3-3-3-3-3--7-7-7-7-5-5-5-5-||
E|---------1-1-1-1--5-5-5-5-3-3-3-3-||
Chorus Ending
E|-------------||
B|-------------||
G|-------------||
D|-3-3-3-5-5-5-||
A|-3-3-3-5-5-5-||
E|-1-1-1-3-3-3-||
Intro
E|--------------------------------------------------------------||
B|--------------------------------------------------------------||
G|-----------------5-5~-----------------------------------------||
D|--7-7~-----------5-5~----------3-3~-----------5-5~------------||
A|--7-7~-----------3-3~----------3-3~-----------5-5~------------||
E|--5-5~-------------------------1-1~-----------3-3~------------||

E|--------------------------------------------------------------||
B|--------------------------------------------------------------||
G|-----------------5-5~-----------------------------------------||
D|--7-7~-----------5-5~----------3-3~-----------5-5~------------||
A|--7-7~-----------3-3~----------3-3~-----------5-5~------------||
E|--5-5~-------------------------1-1~-----------3-3~------------||
Verse
E|--------------------------------------------------------------||
B|--------------------------------------------------------------||
G|--------------------------------------------------------------||
D|-----------------5-5---------5--------------------------------||
A|--7-7----------7-3-3---------3-3-3----------3-5-5-----------5-||
E|--5-5----------5-.-.---------.-1-1----------1-3-3-----------3-||
    . .          .               . .          . . .           .
E|--------------------------------------------------------------||
B|--------------------------------------------------------------||
G|--------------------------------------------------------------||
D|-----------------5-5---------5--------------------------------||
A|--7-7----------7-3-3---------3-5-5----------5-3-3-----------5-||
E|--5-5----------5-.-.---------.-3-3----------3-1-1-----------3-||
    . .          .               . .          . . .           .
E|--------------------------------------------------------------||
B|--------------------------------------------------------------||
G|--------------------------------------------------------------||
D|-----------------5-5---------5--------------------------------||
A|--7-7----------7-3-3---------3-3-3----------3-5-5-----------5-||
E|--5-5----------5-.-.---------.-1-1----------1-3-3-----------3-||
    . .          .               . .          . . .           .
E|--------------------------------------------------------------||
B|--------------------------------------------------------------||
G|--------------------------------------------------------------||
D|-----------------5-5---------5--------------------------------||
A|--7-7----------7-3-3---------3-5-5----------5-3-3-----------5-||
E|--5-5----------5-.-.---------.-3-3----------3-1-1-----------3-||
    . .          .               . .          . . .           .
Pre Chorus
E|-------------||
B|-------------||
G|-------------||
D|-3-3-3-5-5-5-||
A|-3-3-3-5-5-5-||
E|-1-1-1-3-3-3-||
Chorus
E|----------------------------------||
B|----------------------------------||
G|-5-5-5-5------------------4-4-4-4-||
D|-5-5-5-5-3-3-3-3--7-7-7-7-5-5-5-5-||
A|-3-3-3-3-3-3-3-3--7-7-7-7-5-5-5-5-||
E|---------1-1-1-1--5-5-5-5-3-3-3-3-||

E|----------------------------------||
B|----------------------------------||
G|-5-5-5-5------------------4-4-4-4-||
D|-5-5-5-5-3-3-3-3--7-7-7-7-5-5-5-5-||
A|-3-3-3-3-3-3-3-3--7-7-7-7-5-5-5-5-||
E|---------1-1-1-1--5-5-5-5-3-3-3-3-||

E|----------------------------------||
B|----------------------------------||
G|-5-5-5-5------------------4-4-4-4-||
D|-5-5-5-5-3-3-3-3--7-7-7-7-5-5-5-5-||
A|-3-3-3-3-3-3-3-3--7-7-7-7-5-5-5-5-||
E|---------1-1-1-1--5-5-5-5-3-3-3-3-||

E|----------------------------------||
B|----------------------------------||
G|-5-5-5-5------------------4-4-4-4-||
D|-5-5-5-5-3-3-3-3--7-7-7-7-5-5-5-5-||
A|-3-3-3-3-3-3-3-3--7-7-7-7-5-5-5-5-||
E|---------1-1-1-1--5-5-5-5-3-3-3-3-||
Chorus Ending
E|-------------||
B|-------------||
G|-------------||
D|-3-3-3-5-5-5-||
A|-3-3-3-5-5-5-||
E|-1-1-1-3-3-3-||
Bridge
E|-----------------------------------------||
B|-----------------------------------------||
G|----------------------------------7-910/-||
D|-7-7-7-7-7--9-9-9-9-9-1010101010--x-x-x--||
A|-7-7-7-7-7--x-x-x-x-x--x-x-x-x-x--5-7-8/-||
E|-5-5-5-5-5--7-7-7-7-7--8-8-8-8-8---------||

E|-------------------------------||
B|-------------------------------||
G|-2-2-2-2-2-2-2-2-4-4-4-4-4-4-4-||
D|-3-3-3-3-3-3-3-3-5-5-5-5-5-5-5-||
A|-3-3-3-3-3-3-3-3-5-5-5-5-5-5-5-||
E|-1-1-1-1-1-1-1-1-3-3-3-3-3-3-3-||

E|-----------------------------------------||
B|-----------------------------------------||
G|----------------------------------7-910/-||
D|-7-7-7-7-7--9-9-9-9-9-1010101010--x-x-x--||
A|-7-7-7-7-7--x-x-x-x-x--x-x-x-x-x--5-7-8/-||
E|-5-5-5-5-5--7-7-7-7-7--8-8-8-8-8---------||

E|---------------------------------||
B|---------------------------------||
G|-2-2-2-2-2-2-2-2-4-4-4-4-4-4-4-4-||
D|-3-3-3-3-3-3-3-3-5-5-5-5-5-5-5-5-||
A|-3-3-3-3-3-3-3-3-5-5-5-5-5-5-5-5-||
E|-1-1-1-1-1-1-1-1-3-3-3-3-3-3-3-3-||

E|---------------------------------------------||
B|---------------------------------------------||
G|---------------------------------------------||
D|-7-7-7-7-7--9-9-9-9-9-1010101010-------------||
A|-7-7-7-7-7--x-x-x-x-x--x-x-x-x-x--555-777-8/-||
E|-5-5-5-5-5--7-7-7-7-7--8-8-8-8-8--...-...----||

E|-----------------3-3-3-3-3-3-3-3-||
B|-----------------3-3-3-3-3-3-3-3-||
G|-2-2-2-2-2-2-2-2-4-4-4-4-4-4-4-4-||
D|-3-3-3-3-3-3-3-3-5-5-5-5-5-5-5-5-||
A|-3-3-3-3-3-3-3-3-5-5-5-5-5-5-5-5-||
E|-1-1-1-1-1-1-1-1-3-3-3-3-3-3-3-3-||

E|---------------------------------------------||
B|---------------------------------------------||
G|---------------------------------------------||
D|-7-7-7-7-7--9-9-9-9-9-1010101010-------------||
A|-7-7-7-7-7--x-x-x-x-x--x-x-x-x-x--555-777-8/-||
E|-5-5-5-5-5--7-7-7-7-7--8-8-8-8-8--...-...----||

E|-----------------3-3-3-3-3-3-3-3----||
B|-----------------3-3-3-3-3-3-3-3----||
G|-2-2-2-2-2-2-2-2-4-4-4-4-4-4-4-4-5~-||
D|-3-3-3-3-3-3-3-3-5-5-5-5-5-5-5-5-7~-||
A|-3-3-3-3-3-3-3-3-5-5-5-5-5-5-5-5-7~-||
E|-1-1-1-1-1-1-1-1-3-3-3-3-3-3-3-3-5~-||
Chorus
E|----------------------------------||
B|----------------------------------||
G|-5-5-5-5------------------4-4-4-4-||
D|-5-5-5-5-3-3-3-3--7-7-7-7-5-5-5-5-||
A|-3-3-3-3-3-3-3-3--7-7-7-7-5-5-5-5-||
E|---------1-1-1-1--5-5-5-5-3-3-3-3-||

E|----------------------------------||
B|----------------------------------||
G|-5-5-5-5------------------4-4-4-4-||
D|-5-5-5-5-3-3-3-3--7-7-7-7-5-5-5-5-||
A|-3-3-3-3-3-3-3-3--7-7-7-7-5-5-5-5-||
E|---------1-1-1-1--5-5-5-5-3-3-3-3-||

E|----------------------------------||
B|----------------------------------||
G|-5-5-5-5------------------4-4-4-4-||
D|-5-5-5-5-3-3-3-3--7-7-7-7-5-5-5-5-||
A|-3-3-3-3-3-3-3-3--7-7-7-7-5-5-5-5-||
E|---------1-1-1-1--5-5-5-5-3-3-3-3-||

E|----------------------------------||
B|----------------------------------||
G|-5-5-5-5------------------4-4-4-4-||
D|-5-5-5-5-3-3-3-3--7-7-7-7-5-5-5-5-||
A|-3-3-3-3-3-3-3-3--7-7-7-7-5-5-5-5-||
E|---------1-1-1-1--5-5-5-5-3-3-3-3-||
Chorus Ending
E|-------------||
B|-------------||
G|-------------||
D|-3-3-3-5-5-5-||
A|-3-3-3-5-5-5-||
E|-1-1-1-3-3-3-||
Outro
E|--------------------------------------------------------------||
B|--------------------------------------------------------------||
G|--------------------------------------------------------------||
D|-----------------5-5------------------------------------------||
A|--7-7------------3-3-----------3-3------------5-5-------------||
E|--5-5------------.-.-----------1-1------------3-3-------------||
    . .                          . .            . .
E|--------------------------------------------------------------||
B|--------------------------------------------------------------||
G|--------------------------------------------------------------||
D|-----------------5-5------------------------------------------||
A|--7-7------------3-3-----------3-3------------5-5-------------||
E|--5-5------------.-.-----------1-1------------3-3-------------||
    . .                          . .            . .
Ending
E|-----||
B|-----||
G|-----||
D|-----||
A|-7-7-||
E|-5-5-||
   . .

--------
Guitar 2
--------

Intro-All Hammer-ons, the L's and R's are just which hand is best
to use for that note
E|--------------------------------------------------------------||
B|--------------------------------------------------------------||
G|--------------------------------------------------------------||
D|--L---L--R-L--R--L---L-L--R-L--L---L--R-L--R--L-L----L-R--L-L-||
A|-h7r0h3h12r5h10-h7r0r3h5h10r5-h7r0h3h12r5h10-h7r3r0h10h12r5r3-||
E|--------------------------------------------------------------||

E|--------------------------------------------------------------||
B|--------------------------------------------------------------||
G|--------------------------------------------------------------||
D|--L---L--R-L--R--L---L-L--R-L--L---L--R-L--R--L-L----L-R--L-L-||
A|-h7r0h3h12r5h10-h7r0r3h5h10r5-h7r0h3h12r5h10-h7r3r0h10h12r5r3-||
E|--------------------------------------------------------------||

E|--------------------------------------------------------------||
B|--------------------------------------------------------------||
G|--------------------------------------------------------------||
D|--L---L--R-L--R--L---L-L--R-L--L---L--R-L--R--L-L----L-R--L-L-||
A|-h7r0h3h12r5h10-h7r0r3h5h10r5-h7r0h3h12r5h10-h7r3r0h10h12r5r3-||
E|--------------------------------------------------------------||
Verse*there sounds like there's another guitar during this part but
it's using a really weird effect, so i don't know what's going on or
if it's even a guitar at all
E|----------------||
B|----------------||
G|-5~-------------||
D|----------------||
A|----------------||
E|----------------||
Intro
E|--------------------------------------------------------------||
B|--------------------------------------------------------------||
G|--------------------------------------------------------------||
D|--L---L--R-L--R--L---L-L--R-L--L---L--R-L--R--L-L----L-R--L-L-||
A|-h7r0h3h12r5h10-h7r0r3h5h10r5-h7r0h3h12r5h10-h7r3r0h10h12r5r3-||
E|--------------------------------------------------------------||

E|--------------------------------------------------------------||
B|--------------------------------------------------------------||
G|--------------------------------------------------------------||
D|--L---L--R-L--R--L---L-L--R-L--L---L--R-L--R--L-L----L-R--L-L-||
A|-h7r0h3h12r5h10-h7r0r3h5h10r5-h7r0h3h12r5h10-h7r3r0h10h12r5r3-||
E|--------------------------------------------------------------||
Verse
E|----------------||
B|----------------||
G|-5~-------------||
D|----------------||
A|----------------||
E|----------------||

E|----------------||
B|----------------||
G|----------------||
D|----------------||
A|----------------||
E|----------------||

E|---------------------------------||
B|-5-5-5-5-5-5-5-5-5-5-5-5-3-3-3-3-||
G|-5-5-5-5-5-5-5-5-5-5-5-5-5-5-5-5-||
D|---------------------------------||
A|---------------------------------||
E|---------------------------------||

E|---------------------------------||
B|-5-5-5-5-5-5-5-5-3-3-3-3-3-5-5-5-||
G|-5-5-5-5-5-5-5-5-5-5-5-5-5-5-5-5-||
D|---------------------------------||
A|---------------------------------||
E|---------------------------------||
Pre Chorus
E|-------------||
B|-------------||
G|-------------||
D|-3-3-3-5-5-5-||
A|-3-3-3-5-5-5-||
E|-1-1-1-3-3-3-||
Chorus
E|-------------------12-------12--------15----------15----15----------15----||
B|-13-------13----------13-------13--------13----------13----13----13----13-||
G|----12-12----12-12-------12-------12--------12-12-------------12----------||
D|--------------------------------------------------------------------------||
A|--------------------------------------------------------------------------||
E|--------------------------------------------------------------------------||

E|-------------------12-------12--------15----------15----15----------15----||
B|-13-------13----------13-------13--------13----------13----13----13----13-||
G|----12-12----12-12-------12-------12--------12-12-------------12----------||
D|--------------------------------------------------------------------------||
A|--------------------------------------------------------------------------||
E|--------------------------------------------------------------------------||

E|-------------------12-------12--------15----------15----15----------15----||
B|-13-------13----------13-------13--------13----------13----13----13----13-||
G|----12-12----12-12-------12-------12--------12-12-------------12----------||
D|--------------------------------------------------------------------------||
A|--------------------------------------------------------------------------||
E|--------------------------------------------------------------------------||

E|-------------------12-------12--------15----------15----15----------15----||
B|-13-------13----------13-------13--------13----------13----13----13----13-||
G|----12-12----12-12-------12-------12--------12-12-------------12----------||
D|--------------------------------------------------------------------------||
A|--------------------------------------------------------------------------||
E|--------------------------------------------------------------------------||
Chorus Ending
E|-------------||
B|-------------||
G|-------------||
D|-3-3-3-5-5-5-||
A|-3-3-3-5-5-5-||
E|-1-1-1-3-3-3-||
Intro
E|--------------------------------------------------------------||
B|--------------------------------------------------------------||
G|--------------------------------------------------------------||
D|--L---L--R-L--R--L---L-L--R-L--L---L--R-L--R--L-L----L-R--L-L-||
A|-h7r0h3h12r5h10-h7r0r3h5h10r5-h7r0h3h12r5h10-h7r3r0h10h12r5r3-||
E|--------------------------------------------------------------||

E|--------------------------------------------------------------||
B|--------------------------------------------------------------||
G|--------------------------------------------------------------||
D|--L---L--R-L--R--L---L-L--R-L--L---L--R-L--R--L-L----L-R--L-L-||
A|-h7r0h3h12r5h10-h7r0r3h5h10r5-h7r0h3h12r5h10-h7r3r0h10h12r5r3-||
E|--------------------------------------------------------------||
Verse
E|----------------||
B|----------------||
G|-5~-------------||
D|----------------||
A|----------------||
E|----------------||

E|----------------||
B|----------------||
G|----------------||
D|----------------||
A|----------------||
E|----------------||

E|---------------------------------||
B|-5-5-5-5-5-5-5-5-5-5-5-5-3-3-3-3-||
G|-5-5-5-5-5-5-5-5-5-5-5-5-5-5-5-5-||
D|---------------------------------||
A|---------------------------------||
E|---------------------------------||

E|---------------------------------||
B|-5-5-5-5-5-5-5-5-3-3-3-3-3-5-5-5-||
G|-5-5-5-5-5-5-5-5-5-5-5-5-5-5-5-5-||
D|---------------------------------||
A|---------------------------------||
E|---------------------------------||
Pre Chorus
E|-------------||
B|-------------||
G|-------------||
D|-3-3-3-5-5-5-||
A|-3-3-3-5-5-5-||
E|-1-1-1-3-3-3-||
Chorus
E|-------------------12-------12--------15----------15----15----------15----||
B|-13-------13----------13-------13--------13----------13----13----13----13-||
G|----12-12----12-12-------12-------12--------12-12-------------12----------||
D|--------------------------------------------------------------------------||
A|--------------------------------------------------------------------------||
E|--------------------------------------------------------------------------||

E|-------------------12-------12--------15----------15----15----------15----||
B|-13-------13----------13-------13--------13----------13----13----13----13-||
G|----12-12----12-12-------12-------12--------12-12-------------12----------||
D|--------------------------------------------------------------------------||
A|--------------------------------------------------------------------------||
E|--------------------------------------------------------------------------||

E|-------------------12-------12--------15----------15----15----------15----||
B|-13-------13----------13-------13--------13----------13----13----13----13-||
G|----12-12----12-12-------12-------12--------12-12-------------12----------||
D|--------------------------------------------------------------------------||
A|--------------------------------------------------------------------------||
E|--------------------------------------------------------------------------||

E|-------------------12-------12--------15----------15----15----------15----||
B|-13-------13----------13-------13--------13----------13----13----13----13-||
G|----12-12----12-12-------12-------12--------12-12-------------12----------||
D|--------------------------------------------------------------------------||
A|--------------------------------------------------------------------------||
E|--------------------------------------------------------------------------||
Chorus Ending
E|-------------||
B|-------------||
G|-------------||
D|-3-3-3-5-5-5-||
A|-3-3-3-5-5-5-||
E|-1-1-1-3-3-3-||
Bridge/Solo
E|-12-----------------------------------------||
B|----13-------13----10h12-13/171717-15-13----||
G|-------12-------12-----------------------14-||
D|----------14--------------------------------||
A|--------------------------------------------||
E|--------------------------------------------||

E|-12---------------------------------------------||
B|----13-------13----10h12-13/171717-15-13--------||
G|-------12-------12-----------------------14-14~-||
D|----------14------------------------------------||
A|------------------------------------------------||
E|------------------------------------------------||

E|-12-----------------------------------------||
B|----13-------13----10h12-13/171717-15-13----||
G|-------12-------12-----------------------14-||
D|----------14--------------------------------||
A|--------------------------------------------||
E|--------------------------------------------||

E|-12---------------------------------------------||
B|----13-------13----10h12-13/171717-15-13--------||
G|-------12-------12-----------------------14-14~-||
D|----------14------------------------------------||
A|------------------------------------------------||
E|------------------------------------------------||

E|----10-12-10-12-10-----10-12-10-12-10--15r13r12----------13r12r10---------------------------||
B|-10-----------------12--------------------------15r13r12----------13r12r10------------------||
G|---------------------------------------------------------------------------12r10r9----------||
D|-----------------------------------------------------------------------------------12-10-10-||
A|--------------------------------------------------------------------------------------------||
E|--------------------------------------------------------------------------------------------||

E|------------------------||
B|------------------------||
G|-------9~------------9~-||
D|-10~-------12-10~-------||
A|------------------------||
E|------------------------||

E|----10-12-10-12-10-----10-12-10-12-10--15r13r12----------13r12r10---------------------------||
B|-10-----------------12--------------------------15r13r12----------13r12r10------------------||
G|---------------------------------------------------------------------------12r10r9----------||
D|-----------------------------------------------------------------------------------12-10-10-||
A|--------------------------------------------------------------------------------------------||
E|--------------------------------------------------------------------------------------------||

E|-----||
B|-----||
G|-----||
D|-10~-||
A|-----||
E|-----||

E|--------------------------------------------------------------||
B|--------------------------------------------------------------||
G|--------------------------------------------------------------||
D|--L---L--R-L--R--L---L-L--R-L--L---L--R-L--R--L-L----L-R--L-L-||
A|-h7r0h3h12r5h10-h7r0r3h5h10r5-h7r0h3h12r5h10-h7r3r0h10h12r5r3-||
E|--------------------------------------------------------------||
Chorus
E|-------------------12-------12--------15----------15----15----------15----||
B|-13-------13----------13-------13--------13----------13----13----13----13-||
G|----12-12----12-12-------12-------12--------12-12-------------12----------||
D|--------------------------------------------------------------------------||
A|--------------------------------------------------------------------------||
E|--------------------------------------------------------------------------||

E|-------------------12-------12--------15----------15----15----------15----||
B|-13-------13----------13-------13--------13----------13----13----13----13-||
G|----12-12----12-12-------12-------12--------12-12-------------12----------||
D|--------------------------------------------------------------------------||
A|--------------------------------------------------------------------------||
E|--------------------------------------------------------------------------||

E|-------------------12-------12--------15----------15----15----------15----||
B|-13-------13----------13-------13--------13----------13----13----13----13-||
G|----12-12----12-12-------12-------12--------12-12-------------12----------||
D|--------------------------------------------------------------------------||
A|--------------------------------------------------------------------------||
E|--------------------------------------------------------------------------||

E|-------------------12-------12--------15----------15----15----------15----||
B|-13-------13----------13-------13--------13----------13----13----13----13-||
G|----12-12----12-12-------12-------12--------12-12-------------12----------||
D|--------------------------------------------------------------------------||
A|--------------------------------------------------------------------------||
E|--------------------------------------------------------------------------||
Chorus Ending
E|-------------||
B|-------------||
G|-------------||
D|-3-3-3-5-5-5-||
A|-3-3-3-5-5-5-||
E|-1-1-1-3-3-3-||
Outro
E|--------------------------------------------------------------||
B|--------------------------------------------------------------||
G|--------------------------------------------------------------||
D|-----------------5-5------------------------------------------||
A|--7-7------------3-3-----------3-3------------5-5-------------||
E|--5-5------------.-.-----------1-1------------3-3-------------||
    . .                          . .            . .
E|--------------------------------------------------------------||
B|--------------------------------------------------------------||
G|--------------------------------------------------------------||
D|-----------------5-5------------------------------------------||
A|--7-7------------3-3-----------3-3------------5-5-------------||
E|--5-5------------.-.-----------1-1------------3-3-------------||
    . .                          . .            . .
Ending
E|-----||
B|-----||
G|-----||
D|-----||
A|-7-7-||
E|-5-5-||
   . .



------------------------
7.M E N T A L  G A M E S
------------------------

Tuning:Standard

--------
Guitar 1
--------

Intro
E|-----------------------------------------||
B|-----------------------------------------||
G|-5-5---5/7/9-9---9/10/7-7---7/9/5-5--5-4-||
D|-x-x---x-x-x-x---x--x-x-x---x-x-x-x--x-x-||
A|-3-3---3/5/7-7---7/-8/5-5---5/7/3-3--3-2-||
E|-----------------------------------------||

E|-----------------------------------------||
B|-----------------------------------------||
G|-5-5---5/7/9-9---9/10/7-7---7/9/5-5--5-4-||
D|-x-x---x-x-x-x---x--x-x-x---x-x-x-x--x-x-||
A|-3-3---3/5/7-7---7/-8/5-5---5/7/3-3--3-2-||
E|-----------------------------------------||
Verse(strum softer)
E|-----------------------------------------||
B|-----------------------------------------||
G|-5-5---5/7/9-----9/10/7-----7/9/5----5-4-||
D|-x-x---x-x-x-----x--x-x-----x-x-x----x-x-||
A|-3-3---3/5/7-----7/-8/5-----5/7/3----3-2-||
E|-----------------------------------------||

E|-----------------------------------------||
B|-----------------------------------------||
G|-5-5---5/7/9-----9/10/7-----7/9/5----5-4-||
D|-x-x---x-x-x-----x--x-x-----x-x-x----x-x-||
A|-3-3---3/5/7-----7/-8/5-----5/7/3----3-2-||
E|-----------------------------------------||

E|-----------------------------------------||
B|-----------------------------------------||
G|-5-5---5/7/9-----9/10/7-----7/9/5----5-4-||
D|-x-x---x-x-x-----x--x-x-----x-x-x----x-x-||
A|-3-3---3/5/7-----7/-8/5-----5/7/3----3-2-||
E|-----------------------------------------||

E|-----------------------------------------||
B|-----------------------------------------||
G|-5-5---5/7/9-----9/10/7-----7/9/5----5-4-||
D|-x-x---x-x-x-----x--x-x-----x-x-x----x-x-||
A|-3-3---3/5/7-----7/-8/5-----5/7/3----3-2-||
E|-----------------------------------------||
Pre Chorus
E|------------------------------------------------------------------------------------||
B|------------------------------------------------------------------------------------||
G|--------------------------222-555-----------------------------------222-555---------||
D|-333-777-555-2222222--333-...-...-5555555--333-777-555-2222222--333-...-...--5-5-5x-||
A|-...-...-...-.......--...---------.......--...-...-...-.......--...----------5-5-5x-||
E|-----------------------------------------------------------------------------3-3-3x-||
Chorus
E|---------------------------------------------||
B|---------------------------------------------||
G|-----------------------5-5-5-5-5-4-4-4-4-4-4-||
D|-3---------3-3-3-3-3-3-5-5-5-5-5-5-5-5-5-5-5-||
A|-3-3-3-3-3-3-3-3-3-3-3-3-3-3-3-3-5-5-5-5-5-5-||
E|-1-1-1-1-1-1-1-1-1-1-1-----------3-3-3-3-3-3-||
     . . . .
E|---------------------------------------------||
B|---------------------------------------------||
G|-----------------------5-5-5-5-5-4-4-4-4-4-4-||
D|-3---------3-3-3-3-3-3-5-5-5-5-5-5-5-5-5-5-5-||
A|-3-3-3-3-3-3-3-3-3-3-3-3-3-3-3-3-5-5-5-5-5-5-||
E|-1-1-1-1-1-1-1-1-1-1-1-----------3-3-3-3-3-3-||
     . . . .
E|---------------------------------------------||
B|---------------------------------------------||
G|-----------------------5-5-5-5-5-4-4-4-4-4-4-||
D|-3---------3-3-3-3-3-3-5-5-5-5-5-5-5-5-5-5-5-||
A|-3-3-3-3-3-3-3-3-3-3-3-3-3-3-3-3-5-5-5-5-5-5-||
E|-1-1-1-1-1-1-1-1-1-1-1-----------3-3-3-3-3-3-||
     . . . .
E|---------------------------------------------||
B|---------------------------------------------||
G|-7-7-7-7-7-7-7-7-7-7-7-----------------------||
D|-7-7-7-7-7-7-7-7-7-7-7-3-3-3-3-3-3-3-3-3-3-3-||
A|-5-5-5-5-5-5-5-5-5-5-5-3-3-3-3-3-3-3-3-3-3-3-||
E|-----------------------1-1-1-1-1-1-1-1-1-1-1-||
Intro
E|-----------------------------------------||
B|-----------------------------------------||
G|-5-5---5/7/9-9---9/10/7-7---7/9/5-5--5-4-||
D|-x-x---x-x-x-x---x--x-x-x---x-x-x-x--x-x-||
A|-3-3---3/5/7-7---7/-8/5-5---5/7/3-3--3-2-||
E|-----------------------------------------||

E|-----------------------------------------||
B|-----------------------------------------||
G|-5-5---5/7/9-9---9/10/7-7---7/9/5-5--5-4-||
D|-x-x---x-x-x-x---x--x-x-x---x-x-x-x--x-x-||
A|-3-3---3/5/7-7---7/-8/5-5---5/7/3-3--3-2-||
E|-----------------------------------------||
Verse
E|----------------------------------------||
B|----------------------------------------||
G|-2-2---2-4-5-----5-7--------------------||
D|-2-2---2-4-5-----5-7-5------5-7-3---3-5-||
A|-0-0---0-2-3-----3-5-5------5-7-3---3-5-||
E|---------------------3------3-5-1---1-3-||

E|----------------------------------------||
B|----------------------------------------||
G|-2-2---2-4-5-----5-7--------------------||
D|-2-2---2-4-5-----5-7-5------5-7-3---3-5-||
A|-0-0---0-2-3-----3-5-5------5-7-3---3-5-||
E|---------------------3------3-5-1---1-3-||

E|---------------------------------------------------||
B|---------------------------------------------------||
G|-2-----------5-------------------------------------||
D|-2-2-2-2-2-2-5-5-5-5-5-5-5-5-----------3-----------||
A|-0-0-0-0-0-0-3-3-3-3-3-3-3-5-5-5-5-5-5-3-3-3-3-3-3-||
E|---.-.-.-.-.---.-.-.-.-.-.-3-3-3-3-3-3-1-1-1-1-1-1-||
                               . . . . .   . . . . .
E|---------------------------------------------------||
B|---------------------------------------------------||
G|-2-----------5-------------------------5-5-5-5-5-5-||
D|-2-2-2-2-2-2-5-5-5-5-5-5-5-5-----------3-3-3-3-3-3-||
A|-0-0-0-0-0-0-3-3-3-3-3-3-3-5-5-5-5-5-5---.-.-.-.---||
E|---.-.-.-.-.---.-.-.-.-.-.-3-3-3-3-3-3-------------||
                               . . . . .
Pre Chorus
E|------------------------------------------------------------------------------------||
B|------------------------------------------------------------------------------------||
G|--------------------------222-555-----------------------------------222-555---------||
D|-333-777-555-2222222--333-...-...-5555555--333-777-555-2222222--333-...-...--5-5-5x-||
A|-...-...-...-.......--...---------.......--...-...-...-.......--...----------5-5-5x-||
E|-----------------------------------------------------------------------------3-3-3x-||
Chorus
E|---------------------------------------------||
B|---------------------------------------------||
G|-----------------------5-5-5-5-5-4-4-4-4-4-4-||
D|-3---------3-3-3-3-3-3-5-5-5-5-5-5-5-5-5-5-5-||
A|-3-3-3-3-3-3-3-3-3-3-3-3-3-3-3-3-5-5-5-5-5-5-||
E|-1-1-1-1-1-1-1-1-1-1-1-----------3-3-3-3-3-3-||
     . . . .
E|---------------------------------------------||
B|---------------------------------------------||
G|-----------------------5/7-7-9/7-7-7-7/5-5/4-||
D|-3---------3-3-3-3-3-3-x-x-x-x-x-x-x-x-x-x-x-||
A|-3-3-3-3-3-3-3-3-3-3-3-3/5-5-7/5-5-5-5/3-3/2-||
E|-1-1-1-1-1-1-1-1-1-1-1-----------------------||
     . . . .
E|---------------------------------------------||
B|---------------------------------------------||
G|-----------------------5-5-5-5-5-4-4-4-4-4-4-||
D|-3---------3-3-3-3-3-3-5-5-5-5-5-5-5-5-5-5-5-||
A|-3-3-3-3-3-3-3-3-3-3-3-3-3-3-3-3-5-5-5-5-5-5-||
E|-1-1-1-1-1-1-1-1-1-1-1-----------3-3-3-3-3-3-||
     . . . .
E|---------------------------------------------||
B|---------------------------------------------||
G|-7-7-7-7-7-7-7-7-7-7-7-----------------------||
D|-7-7-7-7-7-7-7-7-7-7-7-3-3-3-3-3-3-3-3-3-3-3-||
A|-5-5-5-5-5-5-5-5-5-5-5-3-3-3-3-3-3-3-3-3-3-3-||
E|-----------------------1-1-1-1-1-1-1-1-1-1-1-||
Bridge
E|-----------------------------------------------------------------||
B|-----------------------------------------------------------------||
G|-5-5-5-5-5-5-5-5-5-5-5-5-5-5-5-5---------------------------------||
D|-5-5-5-5-5-5-5-5-5-5-5-5-5-5-5-5-5-5-5-5-5-5-5-5-3-3-3-3-3-3-3-3-||
A|-3-3-3-3-3-3-3-3-x-x-x-x-x-x-x-x-5-5-5-5-5-5-5-5-3-3-3-3-3-3-3-3-||
E|-----------------5-5-5-5-5-5-5-5-3-3-3-3-3-3-3-3-1-1-1-1-1-1-1-1-||

E|-----------------------------------------------------------------||
B|-----------------------------------------------------------------||
G|-5-5-5-5-5-5-5-5-5-5-5-5-5-5-5-5---------------------------------||
D|-5-5-5-5-5-5-5-5-5-5-5-5-5-5-5-5-5-5-5-5-5-5-5-5-3-3-3-3-3-3-3-3-||
A|-3-3-3-3-3-3-3-3-x-x-x-x-x-x-x-x-5-5-5-5-5-5-5-5-3-3-3-3-3-3-3-3-||
E|-----------------5-5-5-5-5-5-5-5-3-3-3-3-3-3-3-3-1-1-1-1-1-1-1-1-||
Pre Chorus
E|--------------------------------------------------------------------------------------||
B|--------------------------------------------------------------------------------------||
G|--------------------------222-555-----------------------------------222-555-----------||
D|-333-777-555-2222222--333-...-...-5555555--333-777-555-2222222--333-...-...--5-5-5-5x-||
A|-...-...-...-.......--...---------.......--...-...-...-.......--...----------5-5-5-5x-||
E|-----------------------------------------------------------------------------3-3-3-3x-||
Chorus
E|---------------------------------------------||
B|---------------------------------------------||
G|-----------------------5-5-5-5-5-4-4-4-4-4-4-||
D|-3---------3-3-3-3-3-3-5-5-5-5-5-5-5-5-5-5-5-||
A|-3-3-3-3-3-3-3-3-3-3-3-3-3-3-3-3-5-5-5-5-5-5-||
E|-1-1-1-1-1-1-1-1-1-1-1-----------3-3-3-3-3-3-||
     . . . .
E|---------------------------------------------||
B|---------------------------------------------||
G|-----------------------5-5-5-5-5-4-4-4-4-4-4-||
D|-3---------3-3-3-3-3-3-5-5-5-5-5-5-5-5-5-5-5-||
A|-3-3-3-3-3-3-3-3-3-3-3-3-3-3-3-3-5-5-5-5-5-5-||
E|-1-1-1-1-1-1-1-1-1-1-1-----------3-3-3-3-3-3-||
     . . . .
E|---------------------------------------------||
B|---------------------------------------------||
G|-----------------------5-5-5-5-5-4-4-4-4-4-4-||
D|-3---------3-3-3-3-3-3-5-5-5-5-5-5-5-5-5-5-5-||
A|-3-3-3-3-3-3-3-3-3-3-3-3-3-3-3-3-5-5-5-5-5-5-||
E|-1-1-1-1-1-1-1-1-1-1-1-----------3-3-3-3-3-3-||
     . . . .
E|---------------------------------------------||
B|---------------------------------------------||
G|-7-7-7-7-7-7-7-7-7-7-7-----------------------||
D|-7-7-7-7-7-7-7-7-7-7-7-3-3-3-3-3-3-3-3-3-3-3-||
A|-5-5-5-5-5-5-5-5-5-5-5-3-3-3-3-3-3-3-3-3-3-3-||
E|-----------------------1-1-1-1-1-1-1-1-1-1-1-||

E|---------------------------------------------||
B|---------------------------------------------||
G|-7-7-7-7-7-7-7-7-7-7-7-----------------------||
D|-7-7-7-7-7-7-7-7-7-7-7-3-3-3-3-3-5-5-5-5-5-5-||
A|-5-5-5-5-5-5-5-5-5-5-5-3-3-3-3-3-5-5-5-5-5-5-||
E|-----------------------1-1-1-1-1-3-3-3-3-3-3-||
Outro
E|-----------------------------------------||
B|-----------------------------------------||
G|-5-5---5/7/9-9---9/10/7-7---7/9/5-5--5-4-||
D|-x-x---x-x-x-x---x--x-x-x---x-x-x-x--x-x-||
A|-3-3---3/5/7-7---7/-8/5-5---5/7/3-3--3-2-||
E|-----------------------------------------||

E|-----------------------------------------||
B|-----------------------------------------||
G|-5-5---5/7/9-9---9/10/7-7---7/9/5-5--5-4-||
D|-x-x---x-x-x-x---x--x-x-x---x-x-x-x--x-x-||
A|-3-3---3/5/7-7---7/-8/5-5---5/7/3-3--3-2-||
E|-----------------------------------------||
Ending
E|--------||
B|--------||
G|-5-5~~~-||
D|-x-x----||
A|-3-3~~~-||
E|--------||

--------
Guitar 2
--------

Intro
E|------------------------------------------------------||
B|------------------------------------------------------||
G|-9-9---9/11/12-12---12/14/16-16---17/16/14-14---14/16-||
D|-x-x---x--x--x--x----x--x--x--x----x--x--x--x----x--x-||
A|-7-7---7/-9/10-10---10/12/14-14---15/14/12-12---12/14-||
E|------------------------------------------------------||

E|------------------------------------------------------||
B|------------------------------------------------------||
G|-9-9---9/11/12-12---12/14/16-16---17/16/14-14---14/16-||
D|-x-x---x--x--x--x----x--x--x--x----x--x--x--x----x--x-||
A|-7-7---7/-9/10-10---10/12/14-14---15/14/12-12---12/14-||
E|------------------------------------------------------||
Verse
E|------------------------------------------------------||
B|------------------------------------------------------||
G|-9-9---9/11/12------12/14/16------17/16/14------14/16-||
D|-x-x---x--x--x-------x--x--x-------x--x--x-------x--x-||
A|-7-7---7/-9/10------10/12/14------15/14/12------12/14-||
E|------------------------------------------------------||

E|------------------------------------------------------||
B|------------------------------------------------------||
G|-9-9---9/11/12------12/14/16------17/16/14------14/16-||
D|-x-x---x--x--x-------x--x--x-------x--x--x-------x--x-||
A|-7-7---7/-9/10------10/12/14------15/14/12------12/14-||
E|------------------------------------------------------||

E|------------------------------------------------------||
B|------------------------------------------------------||
G|-9-9---9/11/12------12/14/16------17/16/14------14/16-||
D|-x-x---x--x--x-------x--x--x-------x--x--x-------x--x-||
A|-7-7---7/-9/10------10/12/14------15/14/12------12/14-||
E|------------------------------------------------------||

E|------------------------------------------------------||
B|------------------------------------------------------||
G|-9-9---9/11/12------12/14/16------17/16/14------14/16-||
D|-x-x---x--x--x-------x--x--x-------x--x--x-------x--x-||
A|-7-7---7/-9/10------10/12/14------15/14/12------12/14-||
E|------------------------------------------------------||
Pre Chorus
E|-----------------------------------------------------------------------------------------------||
B|-----------------------------------------------------------------------------------------------||
G|-999-777------------------------999-777---------999-777------------------------999-777---------||
D|-...-...-101010-9999999--101010-...-...-9999999-...-...-101010-9999999--101010-...-...--5-5-5x-||
A|----------.-.-.-.......---.-.-.---------.......----------.-.-.-.......---.-.-.----------5-5-5x-||
E|----------------------------------------------------------------------------------------3-3-3x-||

E|----------------------------------------------||
B|----------------------------------------------||
G|-5r4------9--7----5-5r4-5/7-5-------5---4h5r4-||
D|-----5/7----------------------5---5---5-------||
A|----------------------------------.---.-------||
E|----------------------------------------------||

E|----------------------------------------------||
B|----------------------------------------------||
G|-5r4------9--7----5-5r4-5/7-5-------5---4h5r4-||
D|-----5/7----------------------5---5---5-------||
A|----------------------------------.---.-------||
E|----------------------------------------------||

E|----------------------------------------------||
B|----------------------------------------------||
G|-5r4------9--7----5-5r4-5/7-5-------5---4h5r4-||
D|-----5/7----------------------5---5---5-------||
A|----------------------------------.---.-------||
E|----------------------------------------------||

E|--------------------------------------------------------------------------------------------------||
B|-15-14----15-14----15-14----15-14----15-14----14-13-12----13-12----13-12--18-17----18-17----18-17-||
G|-------14-------14-------14-------14-------14----------12-------12--------------17-------17-------||
D|--------------------------------------------------------------------------------------------------||
A|--------------------------------------------------------------------------------------------------||
E|--------------------------------------------------------------------------------------------------||
Intro
E|------------------------------------------------------||
B|------------------------------------------------------||
G|-9-9---9/11/12-12---12/14/16-16---17/16/14-14---14/16-||
D|-x-x---x--x--x--x----x--x--x--x----x--x--x--x----x--x-||
A|-7-7---7/-9/10-10---10/12/14-14---15/14/12-12---12/14-||
E|------------------------------------------------------||

E|------------------------------------------------------||
B|------------------------------------------------------||
G|-9-9---9/11/12-12---12/14/16-16---17/16/14-14---14/16-||
D|-x-x---x--x--x--x----x--x--x--x----x--x--x--x----x--x-||
A|-7-7---7/-9/10-10---10/12/14-14---15/14/12-12---12/14-||
E|------------------------------------------------------||
Verse
E|------------------------------------------------------||
B|------------------------------------------------------||
G|-9-9---9/11/12------12/14/16------17/16/14------14/16-||
D|-x-x---x--x--x-------x--x--x-------x--x--x-------x--x-||
A|-7-7---7/-9/10------10/12/14------15/14/12------12/14-||
E|------------------------------------------------------||

E|------------------------------------------------------||
B|------------------------------------------------------||
G|-9-9---9/11/12------12/14/16------17/16/14------14/16-||
D|-x-x---x--x--x-------x--x--x-------x--x--x-------x--x-||
A|-7-7---7/-9/10------10/12/14------15/14/12------12/14-||
E|------------------------------------------------------||

E|--------------------------------------------------------||
B|--------------------------------------------------------||
G|-9-9-9-9-9-12-12-12-12-12-16-16-16-17-16-14-14-14-14-14-||
D|-x-x-x-x-x--x--x--x--x--x--x--x--x--x--x--x--x--x--x--x-||
A|-7-7-7-7-7-10-10-10-10-10-14-14-14-15-14-12-12-12-12-12-||
E|---.-.-.-.-----.--.--.--.-----.--.--.--.-----.--.--.--.-||

E|--------------------------------------------------------||
B|--------------------------------------------------------||
G|-9-9-9-9-9-12-12-12-12-12-16-16-16-17-16-14-14-14-14-14-||
D|-x-x-x-x-x--x--x--x--x--x--x--x--x--x--x--x--x--x--x--x-||
A|-7-7-7-7-7-10-10-10-10-10-14-14-14-15-14-12-12-12-12-12-||
E|---.-.-.-.-----.--.--.--.-----.--.--.--.-----.--.--.--.-||
Pre Chorus
E|-----------------------------------------------------------------------------------------------||
B|-----------------------------------------------------------------------------------------------||
G|-999-777------------------------999-777---------999-777------------------------999-777---------||
D|-...-...-101010-9999999--101010-...-...-9999999-...-...-101010-9999999--101010-...-...--5-5-5x-||
A|----------.-.-.-.......---.-.-.---------.......----------.-.-.-.......---.-.-.----------5-5-5x-||
E|----------------------------------------------------------------------------------------3-3-3x-||

E|----------------------------------------------||
B|----------------------------------------------||
G|-5r4------9--7----5-5r4-5/7-5-------5---4h5r4-||
D|-----5/7----------------------5---5---5-------||
A|----------------------------------.---.-------||
E|----------------------------------------------||

E|----------------------------------------------||
B|----------------------------------------------||
G|-5r4------9--7----5-5r4-5/7-5-------5---4h5r4-||
D|-----5/7----------------------5---5---5-------||
A|----------------------------------.---.-------||
E|----------------------------------------------||

E|----------------------------------------------||
B|----------------------------------------------||
G|-5r4------9--7----5-5r4-5/7-5-------5---4h5r4-||
D|-----5/7----------------------5---5---5-------||
A|----------------------------------.---.-------||
E|----------------------------------------------||

E|--------------------------------------------------------------------------------------------------||
B|-15-14----15-14----15-14----15-14----15-14----14-13-12----13-12----13-12--18-17----18-17----18-17-||
G|-------14-------14-------14-------14-------14----------12-------12--------------17-------17-------||
D|--------------------------------------------------------------------------------------------------||
A|--------------------------------------------------------------------------------------------------||
E|--------------------------------------------------------------------------------------------------||
Bridge(this part is confusing and hard to hear, i'm really sure i've found the right notes for it but
i can't really explain it all that well so just listen closely and try to figure it out)
E|--------------------------------------------------------------------------------------------------||
B|1313131313131313-17171515131315--1313131313131313-17171515131315-1212151515151515-1515151515151515||
G|--------------------------------------------------------------------------------------------------||
D|--------------------------------------------------------------------------------------------------||
A|--------------------------------------------------------------------------------------------------||
E|--------------------------------------------------------------------------------------------------||

E|------------------------------------------------------------1515----------------------------------||
B|1010101010101010-1010101010101010--1313131313131313-13131515----13-1313131313131313-17171515131315||
G|--------------------------------------------------------------------------------------------------||
D|--------------------------------------------------------------------------------------------------||
A|--------------------------------------------------------------------------------------------------||
E|--------------------------------------------------------------------------------------------------||

E|-----------------------------------------------------------------------||
B|--1212151515151515-1212121212121212--1010101010101010/1717171717171717-||
G|-----------------------------------------------------------------------||
D|-----------------------------------------------------------------------||
A|-----------------------------------------------------------------------||
E|-----------------------------------------------------------------------||

Pre Chorus
E|-------------------------------------------------------------------------------------------------||
B|-------------------------------------------------------------------------------------------------||
G|-999-777------------------------999-777---------999-777------------------------999-777-----------||
D|-...-...-101010-9999999--101010-...-...-9999999-...-...-101010-9999999--101010-...-...--5-5-5-5x-||
A|----------.-.-.-.......---.-.-.---------.......----------.-.-.-.......---.-.-.----------5-5-5-5x-||
E|----------------------------------------------------------------------------------------3-3-3-3x-||

E|----------------------------------------------||
B|----------------------------------------------||
G|-5r4------9--7----5-5r4-5/7-5-------5---4h5r4-||
D|-----5/7----------------------5---5---5-------||
A|----------------------------------.---.-------||
E|----------------------------------------------||

E|----------------------------------------------||
B|----------------------------------------------||
G|-5r4------9--7----5-5r4-5/7-5-------5---4h5r4-||
D|-----5/7----------------------5---5---5-------||
A|----------------------------------.---.-------||
E|----------------------------------------------||

E|----------------------------------------------||
B|----------------------------------------------||
G|-5r4------9--7----5-5r4-5/7-5-------5---4h5r4-||
D|-----5/7----------------------5---5---5-------||
A|----------------------------------.---.-------||
E|----------------------------------------------||

E|--------------------------------------------------------------------------------------------------||
B|-15-14----15-14----15-14----15-14----15-14----14-13-12----13-12----13-12--18-17----18-17----18-17-||
G|-------14-------14-------14-------14-------14----------12-------12--------------17-------17-------||
D|--------------------------------------------------------------------------------------------------||
A|--------------------------------------------------------------------------------------------------||
E|--------------------------------------------------------------------------------------------------||

E|-17-16----17-16----17-16----17-16----17-16----16-20-19----20-19----20-19----20-19----20-19----19-||
B|-------17-------17-------17-------17-------17----------20-------20-------20-------20-------20----||
G|-------------------------------------------------------------------------------------------------||
D|-------------------------------------------------------------------------------------------------||
A|-------------------------------------------------------------------------------------------------||
E|-------------------------------------------------------------------------------------------------||
Outro
E|------------------------------------------------------||
B|------------------------------------------------------||
G|-9-9---9/11/12-12---12/14/16-16---17/16/14-14---14/16-||
D|-x-x---x--x--x--x----x--x--x--x----x--x--x--x----x--x-||
A|-7-7---7/-9/10-10---10/12/14-14---15/14/12-12---12/14-||
E|------------------------------------------------------||

E|------------------------------------------------------||
B|------------------------------------------------------||
G|-9-9---9/11/12-12---12/14/16-16---17/16/14-14---14/16-||
D|-x-x---x--x--x--x----x--x--x--x----x--x--x--x----x--x-||
A|-7-7---7/-9/10-10---10/12/14-14---15/14/12-12---12/14-||
E|------------------------------------------------------||
Ending
E|--------||
B|--------||
G|-9-9~~~-||
D|-x-x----||
A|-7-7~~~-||
E|--------||


----------------------
8.I N T E R L U D E  2
----------------------

Tuning:Drop D

--------
Guitar 1
--------

E|------------------------------------------------------||
B|------------------------------------------------------||
G|------------------------------------------------------||
D|-0-0-0-0-------0-0-0-0-------5-5-5-5------10101010----||
A|-0-0-0-0-------0-0-0-0-------3-3-3-3------10101010----||
D|-0-0-0-0-------0-0-0-0-------3-3-3-3------10101010----||
   . . . .       . . . .       . . . .       . . . .
E|----------------------------------------------||
B|----------------------------------------------||
G|----------------------------------------------||
D|-0-0-0-0--0-0-0-0--0-0--0-0-0-0--0-0-0-0--0-0-||
A|-0-0-0-0--0-0-0-0--0-0--0-0-0-0--0-0-0-0--0-0-||
D|-0-0-0-0--0-0-0-0--0-0--0-0-0-0--0-0-0-0--0-0-||
   . . . .  . . . .  . .  . . . .  . . . .  . .
E|-------------------------------------------------||
B|-------------------------------------------------||
G|-------------------------------------------------||
D|-5-5-5-5--5-5-5-5--5-5--10101010--10101010--1010-||
A|-3-3-3-3--3-3-3-3--3-3--10101010--10101010--1010-||
D|-3-3-3-3--3-3-3-3--3-3--10101010--10101010--1010-||
   . . . .  . . . .  . .   . . . .   . . . .   . .
E|----------------------------------------------||
B|----------------------------------------------||
G|----------------------------------------------||
D|-0-0-0-0--0-0-0-0--0-0--0-0-0-0--0-0-0-0--0-0-||
A|-0-0-0-0--0-0-0-0--0-0--0-0-0-0--0-0-0-0--0-0-||
D|-0-0-0-0--0-0-0-0--0-0--0-0-0-0--0-0-0-0--0-0-||
            . . . .  . .  . . . .  . . . .  . .
E|-------------------------------------------------||
B|-------------------------------------------------||
G|-------------------------------------------------||
D|-5-5-5-5--5-5-5-5--5-5--10101010--10101010--1010-||
A|-3-3-3-3--3-3-3-3--3-3--10101010--10101010--1010-||
D|-3-3-3-3--3-3-3-3--3-3--10101010--10101010--1010-||
            . . . .  . .             . . . .   . .
E|----------------------------------------------||
B|----------------------------------------------||
G|----------------------------------------------||
D|-0-0-0-0--0-0-0-0--0-0--0-0-0-0--0-0-0-0--0-0-||
A|-0-0-0-0--0-0-0-0--0-0--0-0-0-0--0-0-0-0--0-0-||
D|-0-0-0-0--0-0-0-0--0-0--0-0-0-0--0-0-0-0--0-0-||
 
E|----------------------------------------------------||
B|----------------------------------------------------||
G|----------------------------------------------------||
D|-5-5-5-5--5-5-5-5--5-5--10101010--10101010101010-0x-||
A|-3-3-3-3--3-3-3-3--3-3--10101010--10101010101010-0x-||
D|-3-3-3-3--3-3-3-3--3-3--10101010--10101010101010-0x-||
  
E|-------------------------------------------||
B|-------------------------------------------||
G|-------------------------------------------||
D|-------------------------------------------||
A|----------------------------10-12-10-8-12~-||
D|-------------------------------------------||

E|-------------------------------------------||
B|-------------------------------------------||
G|-------------------------------------------||
D|-------------------------------------------||
A|----------------------------10-12-10-8-12~-||
D|-------------------------------------------||

E|-------------------------------------||
B|-------------------------------------||
G|-------------------------------------||
D|------------------10---12r10-8---7---||
A|-8---5---12---8----------------------||
D|---0---0----0---0----0---------0---0-||
     .   .    .   .    .         .   .
E|----------------------------------||
B|----------------------------------||
G|----------------------------------||
D|----------------------------------||
A|-8---5---12---8----10-12-10-8-10~-||
D|---0---0----0---0-----------------||
     .   .    .   .
E|-------------------------------------||
B|-------------------------------------||
G|-------------------------------------||
D|------------------10---12r10-8---7---||
A|-8---5---12---8----------------------||
D|---0---0----0---0----0---------0---0-||
     .   .    .   .    .         .   .
E|----------------------------------||
B|----------------------------------||
G|----------------------------------||
D|----------------------------------||
A|-8---5---12---8----10-12-10-8-10~-||
D|---0---0----0---0-----------------||
     .   .    .   .
E|-------------------------------------||
B|-------------------------------------||
G|-------------------------------------||
D|------------------10---12r10-8---7---||
A|-8---5---12---8----------------------||
D|---0---0----0---0----0---------0---0-||
     .   .    .   .    .         .   .
E|----------------------------------||
B|----------------------------------||
G|----------------------------------||
D|----------------------------------||
A|-8---5---12---8----10-12-10-8-10~-||
D|---0---0----0---0-----------------||
     .   .    .   .
E|-------------------------------------||
B|-------------------------------------||
G|-------------------------------------||
D|------------------10---12r10-8---7---||
A|-8---5---12---8----------------------||
D|---0---0----0---0----0---------0---0-||
     .   .    .   .    .         .   .
E|----------------------------------||
B|----------------------------------||
G|----------------------------------||
D|----------------------------------||
A|-8---5---12---8----10-12-10-8-10~-||
D|---0---0----0---0-----------------||
     .   .    .   .
E|----------------------------------------------||
B|----------------------------------------------||
G|----------------------------------------------||
D|-0-0-0-0--0-0-0-0--0-0--0-0-0-0--0-0-0-0--0-0-||
A|-0-0-0-0--0-0-0-0--0-0--0-0-0-0--0-0-0-0--0-0-||
D|-0-0-0-0--0-0-0-0--0-0--0-0-0-0--0-0-0-0--0-0-||
 
E|-------------------------------------------------||
B|-------------------------------------------------||
G|-------------------------------------------------||
D|-5-5-5-5--5-5-5-5--5-5--10101010--10101010101010-||
A|-3-3-3-3--3-3-3-3--3-3--10101010--10101010101010-||
D|-3-3-3-3--3-3-3-3--3-3--10101010--10101010101010-||

E|----------------------------------------------||
B|----------------------------------------------||
G|----------------------------------------------||
D|-0-0-0-0--0-0-0-0--0~---0~----0~------0~------||
A|-0-0-0-0--0-0-0-0--0~---0~----0~------0~------||
D|-0-0-0-0--0-0-0-0--0~---0~----0~------0~------||
                     .    .     .       .

--------
Guitar 2
--------
[ Tab from: http://www.guitartabs.cc/tabs/r/rufio/comfort_of_home_tab.html ]
E|------------------------------------------------------||
B|------------------------------------------------------||
G|------------------------------------------------------||
D|-0-0-0-0-------0-0-0-0-------5-5-5-5------10101010----||
A|-0-0-0-0-------0-0-0-0-------3-3-3-3------10101010----||
D|-0-0-0-0-------0-0-0-0-------3-3-3-3------10101010----||
   . . . .       . . . .       . . . .       . . . .
E|----------------------------------------------||
B|----------------------------------------------||
G|----------------------------------------------||
D|-0-0-0-0--0-0-0-0--0-0--0-0-0-0--0-0-0-0--0-0-||
A|-0-0-0-0--0-0-0-0--0-0--0-0-0-0--0-0-0-0--0-0-||
D|-0-0-0-0--0-0-0-0--0-0--0-0-0-0--0-0-0-0--0-0-||
   . . . .  . . . .  . .  . . . .  . . . .  . .
E|-------------------------------------------------||
B|-------------------------------------------------||
G|-------------------------------------------------||
D|-5-5-5-5--5-5-5-5--5-5--10101010--10101010--1010-||
A|-3-3-3-3--3-3-3-3--3-3--10101010--10101010--1010-||
D|-3-3-3-3--3-3-3-3--3-3--10101010--10101010--1010-||
   . . . .  . . . .  . .   . . . .   . . . .   . .
E|----------------------------------------------||
B|----------------------------------------------||
G|----------------------------------------------||
D|-0-0-0-0--0-0-0-0--0-0--0-0-0-0--0-0-0-0--0-0-||
A|-0-0-0-0--0-0-0-0--0-0--0-0-0-0--0-0-0-0--0-0-||
D|-0-0-0-0--0-0-0-0--0-0--0-0-0-0--0-0-0-0--0-0-||
            . . . .  . .  . . . .  . . . .  . .
E|-------------------------------------------------||
B|-------------------------------------------------||
G|-------------------------------------------------||
D|-5-5-5-5--5-5-5-5--5-5--10101010--10101010--1010-||
A|-3-3-3-3--3-3-3-3--3-3--10101010--10101010--1010-||
D|-3-3-3-3--3-3-3-3--3-3--10101010--10101010--1010-||
            . . . .  . .             . . . .   . .
E|----------------------------------------------||
B|----------------------------------------------||
G|----------------------------------------------||
D|-0-0-0-0--0-0-0-0--0-0--0-0-0-0--0-0-0-0--0-0-||
A|-0-0-0-0--0-0-0-0--0-0--0-0-0-0--0-0-0-0--0-0-||
D|-0-0-0-0--0-0-0-0--0-0--0-0-0-0--0-0-0-0--0-0-||
 
E|----------------------------------------------------||
B|----------------------------------------------------||
G|----------------------------------------------------||
D|-5-5-5-5--5-5-5-5--5-5--10101010--10101010101010-0x-||
A|-3-3-3-3--3-3-3-3--3-3--10101010--10101010101010-0x-||
D|-3-3-3-3--3-3-3-3--3-3--10101010--10101010101010-0x-||
  
E|---------------------------------||
B|---------------------------------||
G|---------------------------------||
D|-----------------7---8r7-5-------||
A|-5---0---8---7---------------7---||
D|---0---0---0---0---0-------0---0-||
     .   .   .   .   .       .   .
E|-----------------------------||
B|-----------------------------||
G|-----------------------------||
D|-----------------------------||
A|-5---0---8---7----7-8-7-5-7~-||
D|---0---0---0---0-------------||
     .   .   .   .
E|---------------------------------||
B|---------------------------------||
G|---------------------------------||
D|-----------------7---8r7-5-------||
A|-5---0---8---7---------------7---||
D|---0---0---0---0---0-------0---0-||
     .   .   .   .   .       .   .
E|-----------------------------||
B|-----------------------------||
G|-----------------------------||
D|-----------------------------||
A|-5---0---8---7----7-8-7-5-7~-||
D|---0---0---0---0-------------||
     .   .   .   .
E|---------------------------------||
B|---------------------------------||
G|---------------------------------||
D|-----------------7---8r7-5-------||
A|-5---0---8---7---------------7---||
D|---0---0---0---0---0-------0---0-||
     .   .   .   .   .       .   .
E|-----------------------------||
B|-----------------------------||
G|-----------------------------||
D|-----------------------------||
A|-5---0---8---7----7-8-7-5-7~-||
D|---0---0---0---0-------------||
     .   .   .   .
E|---------------------------------||
B|---------------------------------||
G|---------------------------------||
D|-----------------7---8r7-5-------||
A|-5---0---8---7---------------7---||
D|---0---0---0---0---0-------0---0-||
     .   .   .   .   .       .   .
E|-----------------------------||
B|-----------------------------||
G|-----------------------------||
D|-----------------------------||
A|-5---0---8---7----7-8-7-5-7~-||
D|---0---0---0---0-------------||
     .   .   .   .
E|---------------------------------||
B|---------------------------------||
G|---------------------------------||
D|-----------------7---8r7-5-------||
A|-5---0---8---7---------------7---||
D|---0---0---0---0---0-------0---0-||
     .   .   .   .   .       .   .
E|-----------------------------||
B|-----------------------------||
G|-----------------------------||
D|-----------------------------||
A|-5---0---8---7----7-8-7-5-7~-||
D|---0---0---0---0-------------||
     .   .   .   .
E|---------------------------------||
B|---------------------------------||
G|---------------------------------||
D|-----------------7---8r7-5-------||
A|-5---0---8---7---------------7---||
D|---0---0---0---0---0-------0---0-||
     .   .   .   .   .       .   .
E|-----------------------------||
B|-----------------------------||
G|-----------------------------||
D|-----------------------------||
A|-5---0---8---7----7-8-7-5-7~-||
D|---0---0---0---0-------------||
     .   .   .   .
E|----------------------------------------------||
B|----------------------------------------------||
G|----------------------------------------------||
D|-0-0-0-0--0-0-0-0--0-0--0-0-0-0--0-0-0-0--0-0-||
A|-0-0-0-0--0-0-0-0--0-0--0-0-0-0--0-0-0-0--0-0-||
D|-0-0-0-0--0-0-0-0--0-0--0-0-0-0--0-0-0-0--0-0-||
 
E|-------------------------------------------------||
B|-------------------------------------------------||
G|-------------------------------------------------||
D|-5-5-5-5--5-5-5-5--5-5--10101010--10101010101010-||
A|-3-3-3-3--3-3-3-3--3-3--10101010--10101010101010-||
D|-3-3-3-3--3-3-3-3--3-3--10101010--10101010101010-||

E|----------------------------------------------||
B|----------------------------------------------||
G|----------------------------------------------||
D|-0-0-0-0--0-0-0-0--0~---0~----0~------0~------||
A|-0-0-0-0--0-0-0-0--0~---0~----0~------0~------||
D|-0-0-0-0--0-0-0-0--0~---0~----0~------0~------||
                     .    .     .       .



-----------------
9.D R O W N I N G
-----------------

Tuning:Drop D

--------
Guitar 1
--------

Intro
E|---------------------------------||
B|---------------------------------||
G|---------------------------------||
D|-8-8-8-3-5-5-5-3-0-0-0-3-0-0-3-7-||
A|-8-8-8-3-5-5-5-3-0-0-0-3-0-0-3-7-||
D|-8-8-8-3-5-5-5-3-0-0-0-3-0-0-3-7-||

E|----------------------------------||
B|----------------------------------||
G|----------------------------------||
D|-8-8-8-3-5-5-5-3-0-0-0-3-0-0-3-7x-||
A|-8-8-8-3-5-5-5-3-0-0-0-3-0-0-3-7x-||
D|-8-8-8-3-5-5-5-3-0-0-0-3-0-0-3-7x-||

E|----------------------------------||
B|----------------------------------||
G|----------------------------------||
D|---8-8-3-5-5-5-3-0-0-0-8-10101010-||
A|---8-8-3-5-5-5-3-0-0-0-8-10101010-||
D|---8-8-3-5-5-5-3-0-0-0-8-10101010-||

E|---x-x-x-x-x-x-----------------||
B|---x-x-x-x-x-x-----------------||
G|---x-x-x-x-x-x-----------------||
D|-1-x-x-x-x-x-x-2-2-2-2-2-2-2-2-||
A|-1-x-x-x-x-x-x-0-0-0-0-0-0-0-0-||
D|-1-x-x-x-x-x-x-.-.-.-.-.-.-.-.-||
Verse
Silent at first then:
E|---x-x-x-x-x-x-----------------||
B|---x-x-x-x-x-x-----------------||
G|---x-x-x-x-x-x-----------------||
D|-1-x-x-x-x-x-x-2-2-2-2-2-2-2-2-||
A|-1-x-x-x-x-x-x-0-0-0-0-0-0-0-0-||
D|-1-x-x-x-x-x-x-.-.-.-.-.-.-.-.-||

E|------------------------------------------------------------||
B|------------------------------------------------------------||
G|------------------------------------------------------------||
D|1212x---1010x----0-0x--------------1212x---1010x------------||
A|-8-8x----7-7x----0-0x---------------8-8x----7-7x------------||
D|-8-8x----7-7x----0-0x---------------8-8x----7-7x------------||

E|---------------------------------||
B|---------------------------------||
G|---------------------------------||
D|1212x---1010x----8-8x----7-7x----||
A|-8-8x----7-7x----5-5x----3-3x----||
D|-8-8x----7-7x----5-5x----3-3x----||

E|---x-x-x-x-x-x-----------------||
B|---x-x-x-x-x-x-----------------||
G|---x-x-x-x-x-x-----------------||
D|-1-x-x-x-x-x-x-2-2-2-2-2-2-2-2-||
A|-1-x-x-x-x-x-x-0-0-0-0-0-0-0-0-||
D|-1-x-x-x-x-x-x-.-.-.-.-.-.-.-.-||
Chorus
E|------------------------------------------------------||
B|------------------------------------------------------||
G|-7-7-7-7-7-7--3-3-3-3-3-3-3---------------------------||
D|-7-7-7-7-7-7--3-3-3-3-3-3-3--3-3-3-3-3-3--------------||
A|-5-5-5-5-5-5--1-1-1-1-1-1-1--3-3-3-3-3-3--3-3-3-3-3-3-||
D|-0-0-0-0-0-0-----------------3-3-3-3-3-3--2-2-2-2-2-2-||

E|------------------------------------------------------||
B|------------------------------------------------------||
G|-7-7-7-7-7-7--3-3-3-3-3-3-3---------------------------||
D|-7-7-7-7-7-7--3-3-3-3-3-3-3--3-3-3-3-3-3--------------||
A|-5-5-5-5-5-5--1-1-1-1-1-1-1--3-3-3-3-3-3--3-3-3-3-3-3-||
D|-0-0-0-0-0-0-----------------3-3-3-3-3-3--2-2-2-2-2-2-||

E|------------------------------------------------------||
B|------------------------------------------------------||
G|-7-7-7-7-7-7--3-3-3-3-3-3-3---------------------------||
D|-7-7-7-7-7-7--3-3-3-3-3-3-3--3-3-3-3-3-3--------------||
A|-5-5-5-5-5-5--1-1-1-1-1-1-1--3-3-3-3-3-3--3-3-3-3-3-3-||
D|-0-0-0-0-0-0-----------------3-3-3-3-3-3--2-2-2-2-2-2-||

E|-------------------------------||
B|-------------------------------||
G|-------------------------------||
D|-1-1-1-1-1-1-1-2-2-2-2-2-2-2-2-||
A|-1-1-1-1-1-1-1-0-0-0-0-0-0-0-0-||
D|-1-1-1-1-1-1-1-.-.-.-.-.-.-.-.-||
     . . . . . .
Verse
E|------------------------------------------------------------||
B|------------------------------------------------------------||
G|------------------------------------------------------------||
D|1212x---1010x----0-0x--------------1212x---1010x----0-0x----||
A|-8-8x----7-7x----0-0x---------------8-8x----7-7x----0-0x----||
D|-8-8x----7-7x----0-0x---------------8-8x----7-7x----0-0x----||

E|---------------------------------||
B|---------------------------------||
G|---------------------------------||
D|1212x---1010x----8-8x----7-7x----||
A|-8-8x----7-7x----5-5x----3-3x----||
D|-8-8x----7-7x----5-5x----3-3x----||

E|---x-x-x-x-x-x-----------------||
B|---x-x-x-x-x-x-----------------||
G|---x-x-x-x-x-x-----------------||
D|-1-x-x-x-x-x-x-2-2-2-2-2-2-2-2-||
A|-1-x-x-x-x-x-x-0-0-0-0-0-0-0-0-||
D|-1-x-x-x-x-x-x-.-.-.-.-.-.-.-.-||
Chorus
E|------------------------------------------------------||
B|------------------------------------------------------||
G|-7-7-7-7-7-7--3-3-3-3-3-3-3---------------------------||
D|-7-7-7-7-7-7--3-3-3-3-3-3-3--3-3-3-3-3-3--------------||
A|-5-5-5-5-5-5--1-1-1-1-1-1-1--3-3-3-3-3-3--3-3-3-3-3-3-||
D|-0-0-0-0-0-0-----------------3-3-3-3-3-3--2-2-2-2-2-2-||

E|------------------------------------------------------||
B|------------------------------------------------------||
G|-7-7-7-7-7-7--3-3-3-3-3-3-3---------------------------||
D|-7-7-7-7-7-7--3-3-3-3-3-3-3--3-3-3-3-3-3--------------||
A|-5-5-5-5-5-5--1-1-1-1-1-1-1--3-3-3-3-3-3--3-3-3-3-3-3-||
D|-0-0-0-0-0-0-----------------3-3-3-3-3-3--2-2-2-2-2-2-||

E|------------------------------------------------------||
B|------------------------------------------------------||
G|-7-7-7-7-7-7--3-3-3-3-3-3-3---------------------------||
D|-7-7-7-7-7-7--3-3-3-3-3-3-3--3-3-3-3-3-3--------------||
A|-5-5-5-5-5-5--1-1-1-1-1-1-1--3-3-3-3-3-3--3-3-3-3-3-3-||
D|-0-0-0-0-0-0-----------------3-3-3-3-3-3--2-2-2-2-2-2-||

E|-------------------------------||
B|-------------------------------||
G|-------------------------------||
D|-1-1-1-1-1-1-1-2-2-2-2-2-2-2-2-||
A|-1-1-1-1-1-1-1-0-0-0-0-0-0-0-0-||
D|-1-1-1-1-1-1-1-.-.-.-.-.-.-.-.-||
     . . . . . .
Bridge
E|-------------------------------------||
B|-------------------------------------||
G|-------------------------------------||
D|-----3~------5~--------5~--------10~-||
A|---0~------3~-------3~--------10~----||
D|-0~------2~------3~-------/10~-------||

E|-------------------------------------------||
B|-------------------------------------------||
G|-------------------------------------------||
D|-----3~------5~--------5~--------10~-88-8/-||
A|---0~------3~-------3~--------10~----88-8/-||
D|-0~------2~------3~-------/10~-------88-8/-||
                                       ..
E|-------------------------------------------------------||
B|-------------------------------------------------------||
G|-----------------------------------------9~------------||
D|-0--00-5-----3-----5--5-7--8~------------7~------------||
A|-0--00-3--33-3--33-5--5-7--8~------------7~------------||
D|-0--00-2--22-3--33-5--5-7--8~------------7~------------||
      ..    ..    ..  
E|-------------------------------------------------------||
B|-------------------------------------------------------||
G|-----------------------------------------9~------------||
D|-0--00-5-----3-----5--5-7--8~------------7~------88-8/-||
A|-0--00-3--33-3--33-5--5-7--8~------------7~------88-8/-||
D|-0--00-3--33-3--33-5--5-7--8~------------7~------88-8/-||
      ..    ..    ..                               ..
E|-------------------------------------------------------||
B|-------------------------------------------------------||
G|-----------------------------------------9~------------||
D|-0--00-5-----3-----5--5-7--8~------------7~------------||
A|-0--00-3--33-3--33-5--5-7--8~------------7~------------||
D|-0--00-3--33-3--33-5--5-7--8~------------7~------------||
      ..    ..    ..  
E|-------------------------------------------------------||
B|-------------------------------------------------------||
G|-----------------------------------------9~------------||
D|-0--00-5-----3-----5--5-7--8~------------7~------------||
A|-0--00-3--33-3--33-5--5-7--8~------------7~------------||
D|-0--00-3--33-3--33-5--5-7--8~------------7~------------||
      ..    ..    ..
Silent for the rest of the bridge

Then right before the final chorus      
E|-------------------------------||
B|-------------------------------||
G|-3-----------------------------||
D|-1-1-1-1-1-1-1-2-2-2-2-2-2-2-2-||
A|-1-1-1-1-1-1-1-0-0-0-0-0-0-0-0-||
D|-1-1-1-1-1-1-1-.-.-.-.-.-.-.-.-||
     . . . . . .
Chorus
E|------------------------------------------------------||
B|------------------------------------------------------||
G|-7-7-7-7-7-7--3-3-3-3-3-3-3---------------------------||
D|-7-7-7-7-7-7--3-3-3-3-3-3-3--3-3-3-3-3-3--------------||
A|-5-5-5-5-5-5--1-1-1-1-1-1-1--3-3-3-3-3-3--3-3-3-3-3-3-||
D|-0-0-0-0-0-0-----------------3-3-3-3-3-3--2-2-2-2-2-2-||

E|------------------------------------------------------||
B|------------------------------------------------------||
G|-7-7-7-7-7-7--3-3-3-3-3-3-3---------------------------||
D|-7-7-7-7-7-7--3-3-3-3-3-3-3--3-3-3-3-3-3--------------||
A|-5-5-5-5-5-5--1-1-1-1-1-1-1--3-3-3-3-3-3--3-3-3-3-3-3-||
D|-0-0-0-0-0-0-----------------3-3-3-3-3-3--2-2-2-2-2-2-||

E|------------------------------------------------------||
B|------------------------------------------------------||
G|-7-7-7-7-7-7--3-3-3-3-3-3-3---------------------------||
D|-7-7-7-7-7-7--3-3-3-3-3-3-3--3-3-3-3-3-3--------------||
A|-5-5-5-5-5-5--1-1-1-1-1-1-1--3-3-3-3-3-3--3-3-3-3-3-3-||
D|-0-0-0-0-0-0-----------------3-3-3-3-3-3--2-2-2-2-2-2-||

E|-------------------------------||
B|-------------------------------||
G|-------------------------------||
D|-1-1-1-1-1-1-1-2-2-2-2-2-2-2-2-||
A|-1-1-1-1-1-1-1-0-0-0-0-0-0-0-0-||
D|-1-1-1-1-1-1-1-.-.-.-.-.-.-.-.-||
     . . . . . .
E|------------------------------------------------------||
B|------------------------------------------------------||
G|-7-7-7-7-7-7--3-3-3-3-3-3-3---------------------------||
D|-7-7-7-7-7-7--3-3-3-3-3-3-3--3-3-3-3-3-3--------------||
A|-5-5-5-5-5-5--1-1-1-1-1-1-1--3-3-3-3-3-3--3-3-3-3-3-3-||
D|-0-0-0-0-0-0-----------------3-3-3-3-3-3--2-2-2-2-2-2-||

E|------------------------------------------------------||
B|------------------------------------------------------||
G|-7-7-7-7-7-7--3-3-3-3-3-3-3---------------------------||
D|-7-7-7-7-7-7--3-3-3-3-3-3-3--3-3-3-3-3-3--------------||
A|-5-5-5-5-5-5--1-1-1-1-1-1-1--3-3-3-3-3-3--3-3-3-3-3-3-||
D|-0-0-0-0-0-0-----------------3-3-3-3-3-3--2-2-2-2-2-2-||

E|------------------------------------------------------||
B|------------------------------------------------------||
G|-7-7-7-7-7-7--3-3-3-3-3-3-3---------------------------||
D|-7-7-7-7-7-7--3-3-3-3-3-3-3--3-3-3-3-3-3--------------||
A|-5-5-5-5-5-5--1-1-1-1-1-1-1--3-3-3-3-3-3--3-3-3-3-3-3-||
D|-0-0-0-0-0-0-----------------3-3-3-3-3-3--2-2-2-2-2-2-||

E|--------------------------------||
B|--------------------------------||
G|--------------------------------||
D|-1-1-1-1-1-1-1-2-2-2-2-2-2-2-2x-||
A|-1-1-1-1-1-1-1-0-0-0-0-0-0-0-0x-||
D|-1-1-1-1-1-1-1-.-.-.-.-.-.-.-.--||
     . . . . . .

--------
Guitar 2
--------

Intro
E|-------------------------------------||
B|-------6/8---------------------------||
G|-7---7-----7-------------------------||
D|---8---------5-7--7h8r7-5-7-10-7-5-7-||
A|-------------------------------------||
D|-------------------------------------||
()=on the B string is another guitar that harmonizes right here
E|------------------------------------||
B|-------6/8-------(8h10r8-6-8-6-8/10)||
G|-7---7-----7------9h10r9-7-9-7-9/10-||
D|---8---------5-7--------------------||
A|------------------------------------||
D|------------------------------------||

E|-------------------------------------||
B|-------6/8---------------------------||
G|-7---7-----7-------------------------||
D|---8---------5-7--7h8r7-5-7-10-7-5-7-||
A|-------------------------------------||
D|-------------------------------------||

E|----------------------------------||
B|-----------------------------8-11-||
G|-------------------------6-9------||
D|---------------------5-8----------||
A|-6~--------------4-7--------------||
D|----------------------------------||
Verse
E|------------------------------------------------------------||
B|------------------------------------------------------------||
G|------------------------------------------------------------||
D|1212x---1010x----0-0x--------------1212x---1010x------------||
A|-8-8x----7-7x----0-0x---------------8-8x----7-7x------------||
D|-8-8x----7-7x----0-0x---------------8-8x----7-7x------------||

E|---------------------------------||
B|---------------------------------||
G|---------------------------------||
D|1212x---1010x----8-8x----7-7x----||
A|-8-8x----7-7x----5-5x----3-3x----||
D|-8-8x----7-7x----5-5x----3-3x----||

E|--------------------------------||
B|---------------------------8-11-||
G|-----------------------6-9------||
D|-1-1-1-1-1-1-1-----5-8----------||
A|-1-1-1-1-1-1-1-4-7--------------||
D|-1-1-1-1-1-1-1------------------||
     . . . . . .
E|---------------------------harmonic-notes-||
B|--------------------------------/\--------||
G|-------------------------------(7755------||
D|1212-xx-x-1010x-xx-x-0-0x-xx-x------8877)-||
A|-8-8-xx-x--7-7x-xx-x-0-0x-xx-x------------||
D|-8-8-xx-x--7-7x-xx-x-0-0x-xx-x------------||

E|---------------------------harmonic-notes-||
B|--------------------------------/\--------||
G|-------------------------------(7755------||
D|1212-xx-x-1010x-xx-x-0-0x-xx-x------8877)-||
A|-8-8-xx-x--7-7x-xx-x-0-0x-xx-x------------||
D|-8-8-xx-x--7-7x-xx-x-0-0x-xx-x------------||

E|------------------------------------------------||
B|------------------------------------------------||
G|---------------------------------------------7--||
D|1212-x12-12--1010-x10-10---8-8-x-8-8---7-7x--*--||
A|-8-8-x-8--8---7-7-x-7--7---5-5-x-5-5---3-3x-----||
D|-8-8-x-8--8---7-7-x-7--7---5-5-x-5-5---3-3x-----||

E|--------------------------------||
B|---------------------------8-11-||
G|-----------------------6-9------||
D|-1-1-1-1-1-1-1-----5-8----------||
A|-1-1-1-1-1-1-1-4-7--------------||
D|-1-1-1-1-1-1-1------------------||
     . . . . . .
Chorus
E|----------------------------------------------------||
B|-10----10----13----13----10----10----10h11-10-------||
G|----10----10----10----10----10----10----------12-10-||
D|----------------------------------------------------||
A|----------------------------------------------------||
D|----------------------------------------------------||

E|----------------------------------------------------||
B|-10----10----13----13----10----10----10h11-10-------||
G|----10----10----10----10----10----10----------12-10-||
D|----------------------------------------------------||
A|----------------------------------------------------||
D|----------------------------------------------------||

E|----------------------------------------------------||
B|-10----10----13----13----10----10----10h11-10-------||
G|----10----10----10----10----10----10----------12-10-||
D|----------------------------------------------------||
A|----------------------------------------------------||
D|----------------------------------------------------||

E|--------------------------------||
B|---------------------------8-11-||
G|-----------------------6-9------||
D|-1-1-1-1-1-1-1-----5-8----------||
A|-1-1-1-1-1-1-1-4-7--------------||
D|-1-1-1-1-1-1-1------------------||
     . . . . . .
Verse-Another guitar plays the intro over this too
E|---------------------------harmonic-notes-||
B|--------------------------------/\--------||
G|-------------------------------(7755------||
D|1212-xx-x-1010x-xx-x-0-0x-xx-x------8877)-||
A|-8-8-xx-x--7-7x-xx-x-0-0x-xx-x------------||
D|-8-8-xx-x--7-7x-xx-x-0-0x-xx-x------------||

E|---------------------------harmonic-notes-||
B|--------------------------------/\--------||
G|-------------------------------(7755------||
D|1212-xx-x-1010x-xx-x-0-0x-xx-x------8877)-||
A|-8-8-xx-x--7-7x-xx-x-0-0x-xx-x------------||
D|-8-8-xx-x--7-7x-xx-x-0-0x-xx-x------------||

E|------------------------------------------------||
B|------------------------------------------------||
G|---------------------------------------------7--||
D|1212-x12-12--1010-x10-10---8-8-x-8-8---7-7x--*--||
A|-8-8-x-8--8---7-7-x-7--7---5-5-x-5-5---3-3x-----||
D|-8-8-x-8--8---7-7-x-7--7---5-5-x-5-5---3-3x-----||

E|--------------------------------||
B|---------------------------8-11-||
G|-----------------------6-9------||
D|-1-1-1-1-1-1-1-----5-8----------||
A|-1-1-1-1-1-1-1-4-7--------------||
D|-1-1-1-1-1-1-1------------------||
     . . . . . .
Chorus
E|----------------------------------------------------||
B|-10----10----13----13----10----10----10h11-10-------||
G|----10----10----10----10----10----10----------12-10-||
D|----------------------------------------------------||
A|----------------------------------------------------||
D|----------------------------------------------------||

E|----------------------------------------------------||
B|-10----10----13----13----10----10----10h11-10-------||
G|----10----10----10----10----10----10----------12-10-||
D|----------------------------------------------------||
A|----------------------------------------------------||
D|----------------------------------------------------||

E|----------------------------------------------------||
B|-10----10----13----13----10----10----10h11-10-------||
G|----10----10----10----10----10----10----------12-10-||
D|----------------------------------------------------||
A|----------------------------------------------------||
D|----------------------------------------------------||

E|--------------------------------||
B|---------------------------8-11-||
G|-----------------------6-9------||
D|-1-1-1-1-1-1-1-----5-8----------||
A|-1-1-1-1-1-1-1-4-7--------------||
D|-1-1-1-1-1-1-1------------------||
     . . . . . .
Bridge
E|-1-----1-----1~--3-----3-----3~--5-----5-----5~--6-----6-----6~-||
B|---3-----3---------3-----3---------6-----6---------5-----5------||
G|-----2-----2---------2-----2---------5-----5---------5-----5----||
D|----------------------------------------------------------------||
A|----------------------------------------------------------------||
D|----------------------------------------------------------------||

E|-1-----1-----1~--3-----3-----3~--5-----5-----5~--6-----6---------||
B|---3-----3---------3-----3---------6-----6---------5-----5-------||
G|-----2-----2---------2-----2---------5-----5---------5-----------||
D|-----------------------------------------------------------88-8/-||
A|-----------------------------------------------------------88-8/-||
D|-----------------------------------------------------------88-8/-||
                                                             ..
E|-------------------------------------------------------||
B|-------------------------------------------------------||
G|-----------------------------------------9~------------||
D|-0--00-5-----3-----5--5-7--8~------------x-------------||
A|-0--00-3--33-3--33-5--5-7--8~------------7~------------||
D|-0--00-2--33-3--33-5--5-7--8~--------------------------||
      ..    ..    ..  
E|--------------------------------------------------||
B|--------------------------------------------------||
G|-----------------------------------------9~-------||
D|-0--00-5-----3-----5--5-7--8~------------7~-------||
A|-0--00-3--33-3--33-5--5-7--8~------------7~-------||
D|-0--00-2--33-3--33-5--5-7--8~------------7~-------||
      ..    ..    ..
E|----------------------------------------------------------------------------------------||
B|-10------------11-10----10------------11-10---------------------------------------------||
G|----12-10-9----------12----12-10-9----------12-10-9----------12-10--10-9----------12-10-||
D|------------12---------------------12---------------12-10----------------12-10----------||
A|----------------------------------------------------------12-------------------12-------||
D|----------------------------------------------------------------------------------------||

E|-17-13-------------13-15-17-13-------------13-15--15r12-------------12-13-15r12-------------12-13-||
B|-------15----15-17-------------15----15-17--------------13----13-15-------------13----13-15-------||
G|----------14----------------------14-----------------------12----------------------12-------------||
D|--------------------------------------------------------------------------------------------------||
A|--------------------------------------------------------------------------------------------------||
D|--------------------------------------------------------------------------------------------------||

E|----------------------------------------------------------------------------------------||
B|-10------------11-10----10------------11-10---------------------------------------------||
G|----12-10-9----------12----12-10-9----------12-10-9----------12-10--10-9----------12-10-||
D|------------12---------------------12---------------12-10----------------12-10----------||
A|----------------------------------------------------------12-------------------12-------||
D|----------------------------------------------------------------------------------------||

E|-17-13-------------13-15-17-13-------------13-15--15r12-------------12-13-15r12-------------12-13-||
B|-------15----15-17-------------15----15-17--------------13----13-15-------------13----13-15-------||
G|----------14----------------------14-----------------------12----------------------12-------------||
D|--------------------------------------------------------------------------------------------------||
A|--------------------------------------------------------------------------------------------------||
D|--------------------------------------------------------------------------------------------------||

E|----------------------------------------------------||
B|-10----10----13----13----10----10----10h11-10-------||
G|----10----10----10----10----10----10----------12-10-||
D|----------------------------------------------------||
A|----------------------------------------------------||
D|----------------------------------------------------||

E|----------------------------------------------------||
B|-10----10----13----13----10----10----10h11-10-------||
G|----10----10----10----10----10----10----------12-10-||
D|----------------------------------------------------||
A|----------------------------------------------------||
D|----------------------------------------------------||

E|----------------------------------------------------||
B|-10----10----13----13----10----10----10h11-10-------||
G|----10----10----10----10----10----10----------12-10-||
D|----------------------------------------------------||
A|----------------------------------------------------||
D|----------------------------------------------------||

E|--------------------------------||
B|---------------------------8-11-||
G|-----------------------6-9------||
D|-1-1-1-1-1-1-1-----5-8----------||
A|-1-1-1-1-1-1-1-4-7--------------||
D|-1-1-1-1-1-1-1------------------||
     . . . . . .
Chorus
E|----------------------------------------------------||
B|-10----10----13----13----10----10----10h11-10-------||
G|----10----10----10----10----10----10----------12-10-||
D|----------------------------------------------------||
A|----------------------------------------------------||
D|----------------------------------------------------||

E|----------------------------------------------------||
B|-10----10----13----13----10----10----10h11-10-------||
G|----10----10----10----10----10----10----------12-10-||
D|----------------------------------------------------||
A|----------------------------------------------------||
D|----------------------------------------------------||

E|----------------------------------------------------||
B|-10----10----13----13----10----10----10h11-10-------||
G|----10----10----10----10----10----10----------12-10-||
D|----------------------------------------------------||
A|----------------------------------------------------||
D|----------------------------------------------------||

E|--------------------------------||
B|---------------------------8-11-||
G|-----------------------6-9------||
D|-1-1-1-1-1-1-1-----5-8----------||
A|-1-1-1-1-1-1-1-4-7--------------||
D|-1-1-1-1-1-1-1------------------||
     . . . . . .
*Right here the intro is played over this too
E|----------------------------------------------------||
B|-10----10----13----13----10----10----10h11-10-------||
G|----10----10----10----10----10----10----------12-10-||
D|----------------------------------------------------||
A|----------------------------------------------------||
D|----------------------------------------------------||

E|----------------------------------------------------||
B|-10----10----13----13----10----10----10h11-10-------||
G|----10----10----10----10----10----10----------12-10-||
D|----------------------------------------------------||
A|----------------------------------------------------||
D|----------------------------------------------------||

E|----------------------------------------------------||
B|-10----10----13----13----10----10----10h11-10-------||
G|----10----10----10----10----10----10----------12-10-||
D|----------------------------------------------------||
A|----------------------------------------------------||
D|----------------------------------------------------||

E|---------------------------------||
B|---------------------------8-11/-||
G|-----------------------6-9-------||
D|-1-1-1-1-1-1-1-----5-8-----------||
A|-1-1-1-1-1-1-1-4-7---------------||
D|-1-1-1-1-1-1-1-------------------||
     . . . . . .



------------------------------------------
10.Q U E S T I O N S  A N D  A N S W E R S
------------------------------------------

Tuning:Drop D

--------
Guitar 1
--------

Intro
E|-------------------------------||
B|-------------------------------||
G|-------------------------------||
D|---------------0-0-0-0-0-0-0-0-||
A|---------------0-0-0-0-0-0-0-0-||
D|---------------0-0-0-0-0-0-0-0-||

E|-------------------------------||
B|-------------------------------||
G|-------------------------------||
D|-4-4-4-4-4-4-4-0-0-0-0-0-0-0-0-||
A|-4-4-4-4-4-4-4-0-0-0-0-0-0-0-0-||
D|-4-4-4-4-4-4-4-0-0-0-0-0-0-0-0-||
Verse
E|-----------------------------------||
B|-----------------------------------||
G|-----------------------------------||
D|-4-4x---4-4-4-4x---0-0x---0-0-0-0x-||
A|-4-4x---4-4-4-4x---0-0x---0-0-0-0x-||
D|-4-4x---4-4-4-4x---0-0x---0-0-0-0x-||
   . .    . . . .    . .    . . . .
E|---------------------------------------||
B|---------------------------------------||
G|---------------------------------------||
D|-4-4x---4-4-4-4x---0-0x---0-0-0-0x---2-||
A|-4-4x---4-4-4-4x---0-0x---0-0-0-0x---2-||
D|-4-4x---4-4-4-4x---0-0x---0-0-0-0x---2-||
   . .    . . . .    . .    . . . .
E|---------------------------------------||
B|---------------------------------------||
G|---------------------------------------||
D|-4-4x---4-4-4-4x---0-0x---0-0-0-0x---2-||
A|-4-4x---4-4-4-4x---0-0x---0-0-0-0x---2-||
D|-4-4x---4-4-4-4x---0-0x---0-0-0-0x---2-||
   . .    . . . .    . .    . . . .
E|-------------------------------x-x-||
B|-------------------------------x-x-||
G|-----------------2-2-2-2-2-2-2-x-x-||
D|-2-2-2-2-2-2-2-2-0-0-0-0-0-0-0-x-x-||
A|-2-2-2-2-2-2-2-2-0-0-0-0-0-0-0-x-x-||
D|-2-2-2-2-2-2-2-2-0-0-0-0-0-0-0-x-x-||
Chorus
E|------------------------------------------------------------------------||
B|------------------------------------------------------------------------||
G|-2-2-2-2-2-2-2-2-2------------------------------2-2-----------------x-x-||
D|-2-2-2-2-2-2-2-2-2-2-2-2-2-2-2-2-2--4-4-4-2-2-2-2-2-2-0-0-0-0-0-0-0-x-x-||
A|-0-0-0-0-0-0-0-0-0-2-2-2-2-2-2-2-2--4-4-4-2-2-2-0-0-2-0-0-0-0-0-0-0-x-x-||
D|-------------------2-2-2-2-2-2-2-2--4-4-4-2-2-2-----2-0-0-0-0-0-0-0-x-x-||

E|--------------------------------------------------------------------||
B|--------------------------------------------------------------------||
G|-2-2-2-2-2-2-2-2-2------------------------------2-2-----------------||
D|-2-2-2-2-2-2-2-2-2-2-2-2-2-2-2-2-2--4-4-4-2-2-2-2-2-2-0-0-0-0-0-0-0-||
A|-0-0-0-0-0-0-0-0-0-2-2-2-2-2-2-2-2--4-4-4-2-2-2-0-0-2-0-0-0-0-0-0-0-||
D|-------------------2-2-2-2-2-2-2-2--4-4-4-2-2-2-----2-0-0-0-0-0-0-0-||
Post Chorus
E|--------------------------||
B|--------------------------||
G|--------------------------||
D|-------2----------------4-||
A|---2-4------0-2-4---2-4---||
D|-4--------4-------4-------||

E|--------------------------||
B|--------------------------||
G|--------------------------||
D|-------2----------------4-||
A|---2-4------0-2-4---2-4---||
D|-4--------4-------4-------||

E|--------------------------||
B|--------------------------||
G|--------------------------||
D|-------2----------------4-||
A|---2-4------0-2-4---2-4---||
D|-4--------4-------4-------||

E|--------------------------||
B|--------------------------||
G|--------------------------||
D|-----------/--------------||
A|-----------/-(big slide)--||
D|-----------/--------------||
Verse
E|-----------------------------------||
B|-----------------------------------||
G|-----------------------------------||
D|-4-4x---4-4-4-4x---0-0x---0-0-0-0x-||
A|-4-4x---4-4-4-4x---0-0x---0-0-0-0x-||
D|-4-4x---4-4-4-4x---0-0x---0-0-0-0x-||
   . .    . . . .    . .    . . . .
E|---------------------------------------||
B|---------------------------------------||
G|---------------------------------------||
D|-4-4x---4-4-4-4x---0-0x---0-0-0-0x---2-||
A|-4-4x---4-4-4-4x---0-0x---0-0-0-0x---2-||
D|-4-4x---4-4-4-4x---0-0x---0-0-0-0x---2-||
   . .    . . . .    . .    . . . .
E|---------------------------------------||
B|---------------------------------------||
G|---------------------------------------||
D|-4-4x---4-4-4-4x---0-0x---0-0-0-0x---2-||
A|-4-4x---4-4-4-4x---0-0x---0-0-0-0x---2-||
D|-4-4x---4-4-4-4x---0-0x---0-0-0-0x---2-||
   . .    . . . .    . .    . . . .
E|-------------------------------x-x-||
B|-------------------------------x-x-||
G|-----------------2-2-2-2-2-2-2-x-x-||
D|-2-2-2-2-2-2-2-2-0-0-0-0-0-0-0-x-x-||
A|-2-2-2-2-2-2-2-2-0-0-0-0-0-0-0-x-x-||
D|-2-2-2-2-2-2-2-2-0-0-0-0-0-0-0-x-x-||
Chorus
E|------------------------------------------------------------------------||
B|------------------------------------------------------------------------||
G|-2-2-2-2-2-2-2-2-2------------------------------2-2-----------------x-x-||
D|-2-2-2-2-2-2-2-2-2-2-2-2-2-2-2-2-2--4-4-4-2-2-2-2-2-2-0-0-0-0-0-0-0-x-x-||
A|-0-0-0-0-0-0-0-0-0-2-2-2-2-2-2-2-2--4-4-4-2-2-2-0-0-2-0-0-0-0-0-0-0-x-x-||
D|-------------------2-2-2-2-2-2-2-2--4-4-4-2-2-2-----2-0-0-0-0-0-0-0-x-x-||

E|--------------------------------------------------------------------||
B|--------------------------------------------------------------------||
G|-2-2-2-2-2-2-2-2-2------------------------------2-2-----------------||
D|-2-2-2-2-2-2-2-2-2-2-2-2-2-2-2-2-2--4-4-4-2-2-2-2-2-2-0-0-0-0-0-0-0-||
A|-0-0-0-0-0-0-0-0-0-2-2-2-2-2-2-2-2--4-4-4-2-2-2-0-0-2-0-0-0-0-0-0-0-||
D|-------------------2-2-2-2-2-2-2-2--4-4-4-2-2-2-----2-0-0-0-0-0-0-0-||
Bridge
E|----------------------------||
B|----------------------------||
G|----------------------------||
D|---7-6-----2-2-4-4/---------||
A|-4-----7-4-2-2-4-4/---------||
D|-----------2-2-4-4/---------||
             .
E|----------------------------||
B|----------------------------||
G|----------------------------||
D|---7-6-----2-2-4-4/-----0-2-||
A|-4-----7-4-2-2-4-4/-----0-2-||
D|-----------2-2-4-4/-----0-2-||
             .
E|----------------------------||
B|----------------------------||
G|----------------------------||
D|---7-6-----2-2-4-4/-------/-||
A|-4-----7-4-2-2-4-4/-------/-||
D|-----------2-2-4-4/-------/-||
             .
E|-----------------------||
B|-----------------------||
G|-----------------------||
D|-0-0-0-0-0-2-2-2-2-2-2-||
A|-0-0-0-0-0-2-2-2-2-2-2-||
D|-0-0-0-0-0-2-2-2-2-2-2-||

E|--------------------||
B|--------------------||
G|--------------------||
D|---7-6-----2-2-4-4/-||
A|-4-----7-4-2-2-4-4/-||
D|-----------2-2-4-4/-||
             .
E|-----------------------||
B|-----------------------||
G|-----------------------||
D|-0-0-0-0-0-2-2-2-2-2-2-||
A|-0-0-0-0-0-2-2-2-2-2-2-||
D|-0-0-0-0-0-2-2-2-2-2-2-||

E|--------------------||
B|--------------------||
G|--------------------||
D|---7-6-----2-2-4-4/-||
A|-4-----7-4-2-2-4-4/-||
D|-----------2-2-4-4/-||
             .
E|-----------------------||
B|-----------------------||
G|-----------------------||
D|-0-0-0-0-0-2-2-2-2-2-2-||
A|-0-0-0-0-0-2-2-2-2-2-2-||
D|-0-0-0-0-0-2-2-2-2-2-2-||

E|--------------------||
B|--------------------||
G|--------------------||
D|---7-6-----2-2-4-4/-||
A|-4-----7-4-2-2-4-4/-||
D|-----------2-2-4-4/-||
             .
E|-----------------------------------------------||
B|-----------------------------------------------||
G|-----------------------------------------------||
D|-0-0-0-0-0-0-0-0-0-0-0-2-2-2-2-2-2-2-2-2-2-2-2-||
A|-0-0-0-0-0-0-0-0-0-0-0-2-2-2-2-2-2-2-2-2-2-2-2-||
D|-0-0-0-0-0-0-0-0-0-0-0-2-2-2-2-2-2-2-2-2-2-2-2-||

E|---------------------------------------||
B|----------3~-------2~------------------||
G|----------2~-------2~------------------||
D|-4~-------0~-------4~-----------0~~~~x-||
A|-4~----------------4~-------0-2-0~~~~x-||
D|-4~-----------------------------0~~~~x-||
Chorus
E|------------------------------------------------------------------------||
B|------------------------------------------------------------------------||
G|-2-2-2-2-2-2-2-2-2------------------------------2-2-----------------x-x-||
D|-2-2-2-2-2-2-2-2-2-2-2-2-2-2-2-2-2--4-4-4-2-2-2-2-2-2-0-0-0-0-0-0-0-x-x-||
A|-0-0-0-0-0-0-0-0-0-2-2-2-2-2-2-2-2--4-4-4-2-2-2-0-0-2-0-0-0-0-0-0-0-x-x-||
D|-------------------2-2-2-2-2-2-2-2--4-4-4-2-2-2-----2-0-0-0-0-0-0-0-x-x-||

E|--------------------------------------------------------------------||
B|--------------------------------------------------------------------||
G|-2-2-2-2-2-2-2-2-2------------------------------2-2-----------------||
D|-2-2-2-2-2-2-2-2-2-2-2-2-2-2-2-2-2--4-4-4-2-2-2-2-2-2-0-0-0-0-0-0-0-||
A|-0-0-0-0-0-0-0-0-0-2-2-2-2-2-2-2-2--4-4-4-2-2-2-0-0-2-0-0-0-0-0-0-0-||
D|-------------------2-2-2-2-2-2-2-2--4-4-4-2-2-2-----2-0-0-0-0-0-0-0-||

E|---------------------------------||
B|---------------------------------||
G|-------------2-2-----------------||
D|-4-4-4-2-2-2-2-2-2-0-0-0-0-0-0-0-||
A|-4-4-4-2-2-2-0-0-2-0-0-0-0-0-0-0-||
D|-4-4-4-2-2-2-----2-0-0-0-0-0-0-0-||
Outro
E|-------------------------------||
B|-------------------------------||
G|-------------------------------||
D|-4-4-4-4-4-4-4-0-0-0-0-0-0-0-0-||
A|-4-4-4-4-4-4-4-0-0-0-0-0-0-0-0-||
D|-4-4-4-4-4-4-4-0-0-0-0-0-0-0-0-||

E|-------------------------------||
B|-------------------------------||
G|-------------------------------||
D|-4-4-4-4-4-4-4-0-0-0-0-0-0-0-0-||
A|-4-4-4-4-4-4-4-0-0-0-0-0-0-0-0-||
D|-4-4-4-4-4-4-4-0-0-0-0-0-0-0-0-||

E|-------------------------------||
B|-------------------------------||
G|-------------------------------||
D|-4-4-4-4-4-4-4-0-0-0-0-0-0-0-0-||
A|-4-4-4-4-4-4-4-0-0-0-0-0-0-0-0-||
D|-4-4-4-4-4-4-4-0-0-0-0-0-0-0-0-||

E|---------------|-----------------||
B|---------------|-----------------||
G|---------------|-----------------||
D|-4-4-4-4-4-4-4-|-----0~~~~~~~~~~-||
A|-4-4-4-4-4-4-4-|-0-2-0~~~~~~~~~~-||
D|-4-4-4-4-4-4-4-|-----0~~~~~~~~~~-||

--------
Guitar 2
--------

Intro
E|-----------------------------------------------------------------||
B|-----------------------------------------------------------------||
G|-----------------------------------------------------------------||
D|-------2---------------2---------------2---------------2---------||
A|---2-4---4-0-2-4---2-4---4-0-2-4---2-4---4-0-2-4---2-4---4-0-2-4-||
D|-4---------------4---------------0---------------0---------------||

E|-----------------------------------------------------------------||
B|-----------------------------------------------------------------||
G|-----------------------------------------------------------------||
D|-------2---------------2---------------2---------------2---------||
A|---2-4---4-0-2-4---2-4---4-0-2-4---2-4---4-0-2-4---2-4---4-0-2-4-||
D|-4---------------4---------------0---------------0---------------||
Verse
E|-----------------------------------------------------------------||
B|-----------------------------------------------------------------||
G|-----------------------------------------------------------------||
D|-------2---------------2---------------2---------------2---------||
A|---2-4-.-4-0-2-4---2-4-.-4-0-2-4---2-4-.-4-0-2-4---2-4-.-4-0-2-4-||
D|-4-.-.---.-.-.-.-4-.-.---.-.-.-.-0-.-.---.-.-.-.-0-.-.---.-.-.-.-||
   .               .               .               . 
E|-----------------------------------------------------------------||
B|-----------------------------------------------------------------||
G|-----------------------------------------------------------------||
D|-------2---------------2---------------2---------------2---------||
A|---2-4-.-4-0-2-4---2-4-.-4-0-2-4---2-4-.-4-0-2-4---2-4-.-4-0-2-4-||
D|-4-.-.---.-.-.-.-4-.-.---.-.-.-.-0-.-.---.-.-.-.-0-.-.---.-.-.-.-||
   .               .               .               .
E|-----------------------------------------------------------------||
B|-----------------------------------------------------------------||
G|-----------------------------------------------------------------||
D|-------2---------------2---------------2---------------2---------||
A|---2-4-.-4-0-2-4---2-4-.-4-0-2-4---2-4-.-4-0-2-4---2-4-.-4-0-2-4-||
D|-4-.-.---.-.-.-.-4-.-.---.-.-.-.-0-.-.---.-.-.-.-0-.-.---.-.-.-.-||
   .               .               .               .
E|-------------------------------------------------||
B|-------------------------------------------------||
G|-7r6-----7r6-----7r6-----7r6-----7-7-9-911111313-||
D|-----7-7-----7-7-----7-7-----7-7-x-x-x-x-x-x-x-x-||
A|---------------------------------5-5-7-7-9-91111-||
D|-------------------------------------------------||
Chorus
E|-------------------------------------------------------------------------x-x-||
B|10---10---12---12---10---10---9---9--------------------------------------x-x-||
G|---9----9----9----9----9----9---9---9--6-6-6-4-4-4-9-9-6-7-7-7-7-7-7-7-7-x-x-||
D|---------------------------------------x-x-x-x-x-x-x-x-x-x-x-x-x-x-x-x-x-x-x-||
A|---------------------------------------4-4-4-2-2-2-7-7-4-5-5-5-5-5-5-5-5-x-x-||
D|-------------------------------------------------------------------------x-x-||

E|-------------------------------------------------------------------------||
B|10---10---12---12---10---10---9---9--------------------------------------||
G|---9----9----9----9----9----9---9---9--6-6-6-4-4-4-9-9-6-7-7-7-7-7-7-7-7-||
D|---------------------------------------x-x-x-x-x-x-x-x-x-x-x-x-x-x-x-x-x-||
A|---------------------------------------4-4-4-2-2-2-7-7-4-5-5-5-5-5-5-5-5-||
D|-------------------------------------------------------------------------||
Post Chorus
E|----------------------------||
B|-10-9-7----7----------------||
G|--------9----9-7-6--6h7r6---||
D|--------------------------7-||
A|----------------------------||
D|----------------------------||

E|----------------------------||
B|-10-9-7----7----------------||
G|--------9----9-7-6--6h7r6---||
D|--------------------------7-||
A|----------------------------||
D|----------------------------||

E|----------------------------||
B|-10-9-7----7----------------||
G|--------9----9-7-6--6h7r6---||
D|--------------------------7-||
A|----------------------------||
D|----------------------------||

E|----------------------------||
B|----------------------------||
G|----------------------------||
D|----------------------------||
A|----------------------------||
D|-(long pick slide)----------||
Verse
E|-----------------------------------------------------------------||
B|-----------------------------------------------------------------||
G|-----------------------------------------------------------------||
D|-------2---------------2---------------2---------------2---------||
A|---2-4-.-4-0-2-4---2-4-.-4-0-2-4---2-4-.-4-0-2-4---2-4-.-4-0-2-4-||
D|-4-.-.---.-.-.-.-4-.-.---.-.-.-.-0-.-.---.-.-.-.-0-.-.---.-.-.-.-||
   .               .               .               . 
E|-----------------------------------------------------------------||
B|-----------------------------------------------------------------||
G|-----------------------------------------------------------------||
D|-------2---------------2---------------2---------------2---------||
A|---2-4-.-4-0-2-4---2-4-.-4-0-2-4---2-4-.-4-0-2-4---2-4-.-4-0-2-4-||
D|-4-.-.---.-.-.-.-4-.-.---.-.-.-.-0-.-.---.-.-.-.-0-.-.---.-.-.-.-||
   .               .               .               .
E|-----------------------------------------------------------------||
B|-----------------------------------------------------------------||
G|-----------------------------------------------------------------||
D|-------2---------------2---------------2---------------2---------||
A|---2-4-.-4-0-2-4---2-4-.-4-0-2-4---2-4-.-4-0-2-4---2-4-.-4-0-2-4-||
D|-4-.-.---.-.-.-.-4-.-.---.-.-.-.-0-.-.---.-.-.-.-0-.-.---.-.-.-.-||
   .               .               .               .
E|-------------------------------------------------||
B|-------------------------------------------------||
G|-7r6-----7r6-----7r6-----7r6-----7-7-9-911111313-||
D|-----7-7-----7-7-----7-7-----7-7-x-x-x-x-x-x-x-x-||
A|---------------------------------5-5-7-7-9-91111-||
D|-------------------------------------------------||
Chorus
E|-------------------------------------------------------------------------x-x-||
B|10---10---12---12---10---10---9---9--------------------------------------x-x-||
G|---9----9----9----9----9----9---9---9--6-6-6-4-4-4-9-9-6-7-7-7-7-7-7-7-7-x-x-||
D|---------------------------------------x-x-x-x-x-x-x-x-x-x-x-x-x-x-x-x-x-x-x-||
A|---------------------------------------4-4-4-2-2-2-7-7-4-5-5-5-5-5-5-5-5-x-x-||
D|-------------------------------------------------------------------------x-x-||

E|-------------------------------------------------------------------------||
B|10---10---12---12---10---10---9---9--------------------------------------||
G|---9----9----9----9----9----9---9---9--6-6-6-4-4-4-9-9-6-7-7-7-7-7-7-7-7-||
D|---------------------------------------x-x-x-x-x-x-x-x-x-x-x-x-x-x-x-x-x-||
A|---------------------------------------4-4-4-2-2-2-7-7-4-5-5-5-5-5-5-5-5-||
D|-------------------------------------------------------------------------||
Bridge
E|----------------------------||
B|----------------------------||
G|---6-4-----9-91111/---------||
D|-2-----6---x-x-x-x----------||
A|---------7-7-7-9-9/---------||
D|-----------.----------------||
             
E|----------------------------||
B|----------------------------||
G|---6-4-----9-91111/---------||
D|-2-----6---x-x-x-x------0-2-||
A|---------7-7-7-9-9/-----0-2-||
D|-----------.------------0-2-||
             
E|----------------------------||
B|----------------------------||
G|---6-4-----9-91111/---------||
D|-2-----6---x-x-x-x--------/-||
A|---------7-7-7-9-9/-------/-||
D|-----------.--------------/-||

E|-----------------------||
B|-----------------------||
G|-7-7-7-7-7-9-9-9-9-9-9-||
D|-x-x-x-x-x-x-x-x-x-x-x-||
A|-5-5-5-5-5-7-7-7-7-7-7-||
D|-----------------------||

E|--------------------||
B|--------------------||
G|---6-4-----9-91111/-||
D|-2-----6---x-x-x-x--||
A|---------7-7-7-9-9/-||
D|-----------.--------||

E|-----------------------||
B|-----------------------||
G|-7-7-7-7-7-9-9-9-9-9-9-||
D|-x-x-x-x-x-x-x-x-x-x-x-||
A|-5-5-5-5-5-7-7-7-7-7-7-||
D|-----------------------||

E|--------------------||
B|--------------------||
G|---6-4-----9-91111/-||
D|-2-----6---x-x-x-x--||
A|---------7-7-7-9-9/-||
D|-----------.--------||

E|-----------------------||
B|-----------------------||
G|-7-7-7-7-7-9-9-9-9-9-9-||
D|-x-x-x-x-x-x-x-x-x-x-x-||
A|-5-5-5-5-5-7-7-7-7-7-7-||
D|-----------------------||

E|--------------------||
B|--------------------||
G|---6-4-----9-91111/-||
D|-2-----6---x-x-x-x--||
A|---------7-7-7-9-9/-||
D|-----------.--------||

E|-----------------------------------------------||
B|-----------------------------------------------||
G|-7-7-7-7-7-7-7-7-7-7-7-9-9-9111111131313131616-||
D|-x-x-x-x-x-x-x-x-x-x-x-x-x-x-x-x-x-x-x-x-x-x-x-||
A|-5-5-5-5-5-5-5-5-5-5-5-7-7-7-9-9-9111111141414-||
D|-----------------------------------------------||

E|----------------------------------------||
B|-----------3~-------2~------------------||
G|11~--------2~-------2~-----------9~~~~x-||
D|-x---------0~-------4~-----------x----x-||
A|-9~-----------------4~-------0-2-7~~~~x-||
D|----------------------------------------||
Chorus
E|-------------------------------------------------------------------------x-x-||
B|10---10---12---12---10---10---9---9--------------------------------------x-x-||
G|---9----9----9----9----9----9---9---9--6-6-6-4-4-4-9-9-6-7-7-7-7-7-7-7-7-x-x-||
D|---------------------------------------x-x-x-x-x-x-x-x-x-x-x-x-x-x-x-x-x-x-x-||
A|---------------------------------------4-4-4-2-2-2-7-7-4-5-5-5-5-5-5-5-5-x-x-||
D|-------------------------------------------------------------------------x-x-||

E|-------------------------------------------------------------------------||
B|10---10---12---12---10---10---9---9--------------------------------------||
G|---9----9----9----9----9----9---9---9--6-6-6-4-4-4-9-9-6-7-7-7-7-9-9-9-9-||
D|---------------------------------------x-x-x-x-x-x-x-x-x-x-x-x-x-x-x-x-x-||
A|---------------------------------------4-4-4-2-2-2-7-7-4-5-5-5-5-7-7-7-7-||
D|-------------------------------------------------------------------------||

E|-----------------------------------||
B|-----------------------------------||
G|111111-9-9-91414141111111111111111-||
D|-x-x-x-x-x-x-x-x-x-x-x-x-x-x-x-x-x-||
A|-9-9-9-7-7-7121212-9-9-9-9-9-9-9-9-||
D|-----------------------------------||
Outro
E|-----------------------------------------------------------------||
B|-----------------------------------------------------------------||
G|-----------------------------------------------------------------||
D|-------2---------------2---------------2---------------2---------||
A|---2-4---4-0-2-4---2-4---4-0-2-4---2-4---4-0-2-4---2-4---4-0-2-4-||
D|-4---------------4---------------0---------------0---------------||

E|-----------------------------------------------------------------||
B|-----------------------------------------------------------------||
G|-----------------------------------------------------------------||
D|-------2---------------2---------------2---------------2---------||
A|---2-4---4-0-2-4---2-4---4-0-2-4---2-4---4-0-2-4---2-4---4-0-2-4-||
D|-4---------------4---------------0---------------0---------------||

E|-----------------------------------------------------------------||
B|-----------------------------------------------------------------||
G|-----------------------------------------------------------------||
D|-------2---------------2---------------2---------------2---------||
A|---2-4---4-0-2-4---2-4---4-0-2-4---2-4---4-0-2-4---2-4---4-0-2-4-||
D|-4---------------4---------------0---------------0---------------||

E|---------------------------------|------------||
B|---------------------------------|------------||
G|---------------------------------|-----9~~~~~-||
D|-------2---------------2---------|-----x------||
A|---2-4---4-0-2-4---2-4---4-0-2-4-|-4-2-7~~~~~-||
D|-4---------------4---------------|------------||


--------
Guitar 3
--------
this little thing is during each intro
E|---------------------------------||
B|-2---2---2---2---3---3---3---3---||
G|---2---2---2---2---2---2---2---2-||
D|---------------------------------||
A|---------------------------------||
D|---------------------------------||



---------------------
11.L I F E  S O N G S
---------------------

Tuning:Standard

--------
Guitar 1
--------

Intro
E|---------------------------------------------||
B|---------------------------------------------||
G|---------------------------------------------||
D|-7-7-7x---7------------5-5-5x---5----------/-||
A|-7-7-7x---7-7-7-7x---7-5-5-5x---5-5-5-5x---/-||
E|-5-5-5x---5-4-4-4x---4-3-3-3x---3-2-2-2x---/-||

E|-------------------------------------------------------------------------||
B|-------------------------------------------------------------------------||
G|-------------------------------------------------------------------------||
D|---3-3------3-3------3-3------5-5-------3-3------3-3------3-3------5-5-5-||
A|-3-3-3--3-3-3-3--3-3-3-3--5-5-5-5---3-3-3-3--3-3-3-3--3-3-3-3--5-5-5-5-5-||
E|-1-1-1--1-1-1-1--1-1-1-1--3-3-3-3---1-1-1-1--1-1-1-1--1-1-1-1--3-3-3-3-3-||
   .      . .      . .      . .       . .      . .      . .      . .
Verse
E|---------------------------------------------||
B|---------------------------------------------||
G|---------------------------------------------||
D|-7-7-7x---7------------5-5-5x---5------------||
A|-7-7-7x---7-7-7-7x---7-5-5-5x---5-5-5-5x---5-||
E|-5-5-5x---5-4-4-4x---4-3-3-3x---3-2-2-2x---2-||

E|----------------------------------||
B|----------------------------------||
G|----------------------------------||
D|---3-3------3-3------3-3------5-5-||
A|-3-3-3--3-3-3-3--3-3-3-3--5-5-5-5-||
E|-1-1-1--1-1-1-1--1-1-1-1--3-3-3-3-||
   .      . .      . .      . .
E|---------------------------------------------||
B|---------------------------------------------||
G|---------------------------------------------||
D|-7-7-7x---7------------5-5-5x---5----------/-||
A|-7-7-7x---7-7-7-7x---7-5-5-5x---5-5-5-5x---/-||
E|-5-5-5x---5-4-4-4x---4-3-3-3x---3-2-2-2x---/-||

E|-------------------------------------------------------------------------||
B|-------------------------------------------------------------------------||
G|-------------------------------------------------------------------------||
D|---3-3------3-3------3-3------5-5-------3-3------3-3------3-3------5-5-5-||
A|-3-3-3--3-3-3-3--3-3-3-3--5-5-5-5---3-3-3-3--3-3-3-3--3-3-3-3--5-5-5-5-5-||
E|-1-1-1--1-1-1-1--1-1-1-1--3-3-3-3---1-1-1-1--1-1-1-1--1-1-1-1--3-3-3-3-3-||
   .      . .      . .      . .       . .      . .      . .      . .
Chorus
E|-0-0-0-0-0-0-0-0-0-0-0-0-0-0-0-0---------------------------------||
B|-1-1-1-1-1-1-1-1-0-0-0-0-0-0-0-0---------------------------------||
G|-2-2-2-2-2-2-2-2-0-0-0-0-0-0-0-0---------------------------------||
D|-2-2-2-2-2-2-2-2-2-2-2-2-2-2-2-2-3-3-3-3-3-3-3-3-3-3-3-3-3-5-5-5-||
A|-0-0-0-0-0-0-0-0-2-2-2-2-2-2-2-2-3-3-3-3-3-3-3-3-3-3-3-3-3-5-5-5-||
E|-----------------0-0-0-0-0-0-0-0-1-1-1-1-1-1-1-1-1-1-1-1-1-3-3-3-||
 
E|-----------------------------------------------------------------||
B|-----------------6-6-6-6-6-6-6-6---------------------------------||
G|-5-5-5-5-5-5-5-5-7-7-7-7-7-7-7-7---------------------------------||
D|-5-5-5-5-5-5-5-5-7-7-7-7-7-7-7-7-3-3-3-3-3-3-3-3-3-3-3-3-3-5-5-5-||
A|-3-3-3-3-3-3-3-3-5-5-5-5-5-5-5-5-3-3-3-3-3-3-3-3-3-3-3-3-3-5-5-5-||
E|---------------------------------1-1-1-1-1-1-1-1-1-1-1-1-1-3-3-3-||

E|-0-0-0-0-0-0-0-0-0-0-0-0-0-0-0-0---------------------------------||
B|-1-1-1-1-1-1-1-1-0-0-0-0-0-0-0-0---------------------------------||
G|-2-2-2-2-2-2-2-2-0-0-0-0-0-0-0-0---------------------------------||
D|-2-2-2-2-2-2-2-2-2-2-2-2-2-2-2-2-3-3-3-3-3-3-3-3-3-3-3-3-3-5-5-5-||
A|-0-0-0-0-0-0-0-0-2-2-2-2-2-2-2-2-3-3-3-3-3-3-3-3-3-3-3-3-3-5-5-5-||
E|-----------------0-0-0-0-0-0-0-0-1-1-1-1-1-1-1-1-1-1-1-1-1-3-3-3-||
 
E|---------------------------------||
B|-----------------6-6-6-6-6-6-6-6-||
G|-5-5-5-5-5-5-5-5-7-7-7-7-7-7-7-7-||
D|-5-5-5-5-5-5-5-5-7-7-7-7-7-7-7-7-||
A|-3-3-3-3-3-3-3-3-5-5-5-5-5-5-5-5-||
E|---------------------------------||
Post Chorus
E|-------------------------------------------------------------------------||
B|-------------------------------------------------------------------------||
G|-------------------------------------------------------------------------||
D|---3-3------3-3------3-3------5-5-------3-3------3-3------3-3------5-5-5-||
A|-3-3-3--3-3-3-3--3-3-3-3--5-5-5-5---3-3-3-3--3-3-3-3--3-3-3-3--5-5-5-5-5-||
E|-1-1-1--1-1-1-1--1-1-1-1--3-3-3-3---1-1-1-1--1-1-1-1--1-1-1-1--3-3-3-3-3-||
   .      . .      . .      . .       . .      . .      . .      . .
Verse
E|---------------------------------------------||
B|---------------------------------------------||
G|---------------------------------------------||
D|-7-7-7x---7------------5-5-5x---5------------||
A|-7-7-7x---7-7-7-7x---7-5-5-5x---5-5-5-5x---5-||
E|-5-5-5x---5-4-4-4x---4-3-3-3x---3-2-2-2x---2-||

E|----------------------------------||
B|----------------------------------||
G|----------------------------------||
D|---3-3------3-3------3-3------5-5-||
A|-3-3-3--3-3-3-3--3-3-3-3--5-5-5-5-||
E|-1-1-1--1-1-1-1--1-1-1-1--3-3-3-3-||
   .      . .      . .      . .
E|---------------------------------------------||
B|---------------------------------------------||
G|---------------------------------------------||
D|-7-7-7x---7------------5-5-5x---5------------||
A|-7-7-7x---7-7-7-7x---7-5-5-5x---5-5-5-5x---5-||
E|-5-5-5x---5-4-4-4x---4-3-3-3x---3-2-2-2x---2-||

E|-------------------------------------------------------------------------||
B|-------------------------------------------------------------------------||
G|-------------------------------------------------------------------------||
D|---3-3------3-3------3-3------5-5-------3-3------3-3------3-3------5-5-5-||
A|-3-3-3--3-3-3-3--3-3-3-3--5-5-5-5---3-3-3-3--3-3-3-3--3-3-3-3--5-5-5-5-5-||
E|-1-1-1--1-1-1-1--1-1-1-1--3-3-3-3---1-1-1-1--1-1-1-1--1-1-1-1--3-3-3-3-3-||
   .      . .      . .      . .       . .      . .      . .      . .
Chorus
E|-0-0-0-0-0-0-0-0-0-0-0-0-0-0-0-0---------------------------------||
B|-1-1-1-1-1-1-1-1-0-0-0-0-0-0-0-0---------------------------------||
G|-2-2-2-2-2-2-2-2-0-0-0-0-0-0-0-0---------------------------------||
D|-2-2-2-2-2-2-2-2-2-2-2-2-2-2-2-2-3-3-3-3-3-3-3-3-3-3-3-3-3-5-5-5-||
A|-0-0-0-0-0-0-0-0-2-2-2-2-2-2-2-2-3-3-3-3-3-3-3-3-3-3-3-3-3-5-5-5-||
E|-----------------0-0-0-0-0-0-0-0-1-1-1-1-1-1-1-1-1-1-1-1-1-3-3-3-||
 
E|-----------------------------------------------------------------||
B|-----------------6-6-6-6-6-6-6-6---------------------------------||
G|-5-5-5-5-5-5-5-5-7-7-7-7-7-7-7-7---------------------------------||
D|-5-5-5-5-5-5-5-5-7-7-7-7-7-7-7-7-3-3-3-3-3-3-3-3-3-3-3-3-3-5-5-5-||
A|-3-3-3-3-3-3-3-3-5-5-5-5-5-5-5-5-3-3-3-3-3-3-3-3-3-3-3-3-3-5-5-5-||
E|---------------------------------1-1-1-1-1-1-1-1-1-1-1-1-1-3-3-3-||

E|-0-0-0-0-0-0-0-0-0-0-0-0-0-0-0-0---------------------------------||
B|-1-1-1-1-1-1-1-1-0-0-0-0-0-0-0-0---------------------------------||
G|-2-2-2-2-2-2-2-2-0-0-0-0-0-0-0-0---------------------------------||
D|-2-2-2-2-2-2-2-2-2-2-2-2-2-2-2-2-3-3-3-3-3-3-3-3-3-3-3-3-3-5-5-5-||
A|-0-0-0-0-0-0-0-0-2-2-2-2-2-2-2-2-3-3-3-3-3-3-3-3-3-3-3-3-3-5-5-5-||
E|-----------------0-0-0-0-0-0-0-0-1-1-1-1-1-1-1-1-1-1-1-1-1-3-3-3-||
 
E|---------------------------------||
B|-----------------6-6-6-6-6-6-6-6-||
G|-5-5-5-5-5-5-5-5-7-7-7-7-7-7-7-7-||
D|-5-5-5-5-5-5-5-5-7-7-7-7-7-7-7-7-||
A|-3-3-3-3-3-3-3-3-5-5-5-5-5-5-5-5-||
E|---------------------------------||
Bridge
E|----------------------------------------------||
B|----------------------------------------------||
G|----------------------------------------------||
D|---3-3------3-3------3-3------5-5--7/---------||
A|-3-3-3--3-3-3-3--3-3-3-3--5-5-5-5--7/---------||
E|-1-1-1--1-1-1-1--1-1-1-1--3-3-3-3--5/---------||
   .      . .      . .      . .
E|-----------------------------------------||
B|-----------------------------------------||
G|---------------------5x------------------||
D|-3---3---3-5---7-7-7-5x------------------||
A|-3-0-3-0-3-5---7-7-7-3x------------------||
E|-1-0-1-0-1-3---5-5-5---------------------||

E|-----------------------------------------||
B|-----------------------------------------||
G|---------------------5-5-5---------------||
D|-3---3---3-5---7-7-7-5-5-5---------------||
A|-3-0-3-0-3-5---7-7-7-3-3-3-5x------------||
E|-1-0-1-0-1-3---5-5-5-------2x------------||

E|-----------------------------------------||
B|-----------------------------------------||
G|---------------------5-5-5---------------||
D|-3---3---3-5---7-7-7-5-5-5---------------||
A|-3-0-3-0-3-5---7-7-7-3-3-3-5-5-5-5-5-5-5-||
E|-1-0-1-0-1-3---5-5-5-------2-2-2-2-2-2-2-||

E|-----------------------------------------------------------||
B|-------------------------------------------2-2-2-2-2-2-2-2-||
G|-------------------------------------------2-2-2-2-2-2-2-2-||
D|-3---3---3-5---3---3---3-5---3---3---3-5---2-2-2-2-2-2-2-2-||
A|-3-0-3-0-3-5---3-0-3-0-3-5---3-0-3-0-3-5---0-0-0-0-0-0-0-0-||
E|-1-0-1-0-1-3---1-0-1-0-1-3---1-0-1-0-1-3-------------------||
Chorus
E|-0-0-0-0-0-0-0-0-0-0-0-0-0-0-0-0---------------------------------||
B|-1-1-1-1-1-1-1-1-0-0-0-0-0-0-0-0---------------------------------||
G|-2-2-2-2-2-2-2-2-0-0-0-0-0-0-0-0---------------------------------||
D|-2-2-2-2-2-2-2-2-2-2-2-2-2-2-2-2-3-3-3-3-3-3-3-3-3-3-3-3-3-5-5-5-||
A|-0-0-0-0-0-0-0-0-2-2-2-2-2-2-2-2-3-3-3-3-3-3-3-3-3-3-3-3-3-5-5-5-||
E|-----------------0-0-0-0-0-0-0-0-1-1-1-1-1-1-1-1-1-1-1-1-1-3-3-3-||
 
E|-----------------------------------------------------------------||
B|-----------------6-6-6-6-6-6-6-6---------------------------------||
G|-5-5-5-5-5-5-5-5-7-7-7-7-7-7-7-7---------------------------------||
D|-5-5-5-5-5-5-5-5-7-7-7-7-7-7-7-7-3-3-3-3-3-3-3-3-3-3-3-3-3-5-5-5-||
A|-3-3-3-3-3-3-3-3-5-5-5-5-5-5-5-5-3-3-3-3-3-3-3-3-3-3-3-3-3-5-5-5-||
E|---------------------------------1-1-1-1-1-1-1-1-1-1-1-1-1-3-3-3-||

E|-0-0-0-0-0-0-0-0-0-0-0-0-0-0-0-0---------------------------------||
B|-1-1-1-1-1-1-1-1-0-0-0-0-0-0-0-0---------------------------------||
G|-2-2-2-2-2-2-2-2-0-0-0-0-0-0-0-0---------------------------------||
D|-2-2-2-2-2-2-2-2-2-2-2-2-2-2-2-2-3-3-3-3-3-3-3-3-3-3-3-3-3-5-5-5-||
A|-0-0-0-0-0-0-0-0-2-2-2-2-2-2-2-2-3-3-3-3-3-3-3-3-3-3-3-3-3-5-5-5-||
E|-----------------0-0-0-0-0-0-0-0-1-1-1-1-1-1-1-1-1-1-1-1-1-3-3-3-||

E|-----------------------------------------------------------------||
B|-----------------6-6-6-6-6-6-6-6---------------------------------||
G|-5-5-5-5-5-5-5-5-7-7-7-7-7-7-7-7---------------------------------||
D|-5-5-5-5-5-5-5-5-7-7-7-7-7-7-7-7-3-3-3-3-3-3-3-3-3-3-3-3-3-5-5-5-||
A|-3-3-3-3-3-3-3-3-5-5-5-5-5-5-5-5-3-3-3-3-3-3-3-3-3-3-3-3-3-5-5-5-||
E|---------------------------------1-1-1-1-1-1-1-1-1-1-1-1-1-3-3-3-||

E|---------------------------------||
B|-----------------6-6-6-6-6-6-6-6-||
G|-5-5-5-5-5-5-5-5-7-7-7-7-7-7-7-7-||
D|-5-5-5-5-5-5-5-5-7-7-7-7-7-7-7-7-||
A|-3-3-3-3-3-3-3-3-5-5-5-5-5-5-5-5-||
E|---------------------------------||
Outro
E|-------------------------------------------------------------------------||
B|-------------------------------------------------------------------------||
G|-------------------------------------------------------------------------||
D|---3-3------3-3------3-3------5-5-------3-3------3-3------3-3------5-5-5-||
A|-3-3-3--3-3-3-3--3-3-3-3--5-5-5-5---3-3-3-3--3-3-3-3--3-3-3-3--5-5-5-5-5-||
E|-1-1-1--1-1-1-1--1-1-1-1--3-3-3-3---1-1-1-1--1-1-1-1--1-1-1-1--3-3-3-3-3-||
   .      . .      . .      . .       . .      . .      . .      . .
E|---------------------------||
B|---------------------------||
G|-------5-5-5---------------||
D|-7-7-7-5-5-5---------------||
A|-7-7-7-3-3-3-5x------------||
E|-5-5-5-------2x------------||

E|--------------||
B|--------------||
G|--------------||
D|-3---3---3-5x-||
A|-3-0-3-0-3-5x-||
E|-1-0-1-0-1-3x-||

--------
Guitar 2
--------

Intro
E|---------------------------------------------------------------------||
B|-----2---2-2---2------0---0-0---0-------0---0-0---0------3---3-3---3-||
G|---2-.-2---.---.----0-.-0-.-.---.-----0-.-0-.-.---.----2-.-2-.-.---.-||
D|-2-.---------2----2-.---------2-----2-.---------2----4-.---.-----4---||
A|-.-----------.----.-----------.-----.-----------.----.-----------.---||
E|---------------------------------------------------------------------||

E|--------------------------------------------------------------|----||
B|--------------------------------------------------------------|----||
G|---9-------7-9-10--9-7-----7-9----9-------7-9-10--9-7-----7-9-|-6~-||
D|-7-.-7-10--------------10-------7-.-7-10--------------10------|----||
A|-.---.--------------------------.---.-------------------------|----||
E|--------------------------------------------------------------|----||
Verse
E|---------------------------------------------------------------------||
B|-----2---2-2---2------0---0-0---0-------0---0-0---0------3---3-3---3-||
G|---2-.-2---.---.----0-.-0-.-.---.-----0-.-0-.-.---.----2-.-2-.-.---.-||
D|-2-.---------2----2-.---------2-----2-.---------2----4-.---.-----4---||
A|-.-----------.----.-----------.-----.-----------.----.-----------.---||
E|---------------------------------------------------------------------||
*then another guitar comes in with:
E|-0-2-0-2-3-2-3-5~--------||
B|-.-.-.-------------------||
G|-------------------------||
D|-------------------------||
A|-------------------------||
E|-------------------------||

E|---------------------------------------------------------------------||
B|-----2---2-2---2------0---0-0---0-------0---0-0---0------3---3-3---3-||
G|---2-.-2---.---.----0-.-0-.-.---.-----0-.-0-.-.---.----2-.-2-.-.---.-||
D|-2-.---------2----2-.---------2-----2-.---------2----4-.---.-----4---||
A|-.-----------.----.-----------.-----.-----------.----.-----------.---||
E|---------------------------------------------------------------------||

E|--------------------------------------------------------||
B|--------------------------------------------------------||
G|-----------------------------------555-444--------------||
D|---3-3------3-3------3-3------5-5----------777-555-5555-||
A|-3-3-3--3-3-3-3--3-3-3-3--5-5-5-5-----------------------||
E|-1-1-1--1-1-1-1--1-1-1-1--3-3-3-3-----------------------||
   .      . .      . .      . .
Chorus
E|-0-0-0-0-0-0-0-0-0-0-0-0-0-0-0-0---------------------------------||
B|-1-1-1-1-1-1-1-1-0-0-0-0-0-0-0-0---------------------------------||
G|-2-2-2-2-2-2-2-2-0-0-0-0-0-0-0-0---------------------------------||
D|-2-2-2-2-2-2-2-2-2-2-2-2-2-2-2-2-3-3-3-3-3-3-3-3-3-3-3-3-3-5-5-5-||
A|-0-0-0-0-0-0-0-0-2-2-2-2-2-2-2-2-3-3-3-3-3-3-3-3-3-3-3-3-3-5-5-5-||
E|-----------------0-0-0-0-0-0-0-0-1-1-1-1-1-1-1-1-1-1-1-1-1-3-3-3-||

E|---10-12---10-12---10-----10-12----------------------------------||
B|-8-------8-------8-----10-------10-15-13-12-13131313131313131313-||
G|-----------------------------------------------------------------||
D|-----------------------------------------------------------------||
A|-----------------------------------------------------------------||
E|-----------------------------------------------------------------||

E|------------------------------------------------------------------||
B|-1010101010101010/131313121212-----131313131313131313131313131313-||
G|------------------------------1212--------------------------------||
D|------------------------------------------------------------------||
A|------------------------------------------------------------------||
E|------------------------------------------------------------------||

E|---10-12---10-12---10-----10-12-------------||
B|-8-------8-------8-----10-------10-15-13-12-||
G|--------------------------------------------||
D|--------------------------------------------||
A|--------------------------------------------||
E|--------------------------------------------||
Post Chorus
E|--------------------------------------------------------------|-------||
B|--------------------------------------------------------------|-------||
G|---9-------7-9-10--9-7-----7-9----9-------7-9-10--9-7-----7-9-|-6~/9~-||
D|-7-.-7-10--------------10-------7-.-7-10--------------10------|-------||
A|-.---.--------------------------.---.-------------------------|-------||
E|--------------------------------------------------------------|-------||
Verse
E|---------------------------------------------------------------------||
B|-----2---2-2---2------0---0-0---0-------0---0-0---0------3---3-3---3-||
G|---2-.-2---.---.----0-.-0-.-.---.-----0-.-0-.-.---.----2-.-2-.-.---.-||
D|-2-.---------2----2-.---------2-----2-.---------2----4-.---.-----4---||
A|-.-----------.----.-----------.-----.-----------.----.-----------.---||
E|---------------------------------------------------------------------||

E|-----------------------------||
B|-/8~------/10----------------||
G|--------------10-9-10-9------||
D|------------------------10-9-||
A|-----------------------------||
E|-----------------------------||

E|---------------------------------------------------------------------||
B|-----2---2-2---2------0---0-0---0-------0---0-0---0------3---3-3---3-||
G|---2-.-2---.---.----0-.-0-.-.---.-----0-.-0-.-.---.----2-.-2-.-.---.-||
D|-2-.---------2----2-.---------2-----2-.---------2----4-.---.-----4---||
A|-.-----------.----.-----------.-----.-----------.----.-----------.---||
E|---------------------------------------------------------------------||

E|-------12-13-12-----------------12-13-12-----------------12-13-12-----------------------------------||
B|----13----------13----13-----13----------13----13-----13----------13----13--------------------------||
G|-14----------------14-----14----------------14-----14----------------14-----14-12----12-------------||
D|----------------------------------------------------------------------------------15----15-14-12-10-||
A|----------------------------------------------------------------------------------------------------||
E|----------------------------------------------------------------------------------------------------||
Chorus
E|------------------------------------------------------------------||
B|-1010101010101010/131313121212-----131313131313131313131313131313-||
G|------------------------------1212--------------------------------||
D|------------------------------------------------------------------||
A|------------------------------------------------------------------||
E|------------------------------------------------------------------||

E|---10-12---10-12---10-----10-12----------------------------------||
B|-8-------8-------8-----10-------10-15-13-12-13131313131313131313-||
G|-----------------------------------------------------------------||
D|-----------------------------------------------------------------||
A|-----------------------------------------------------------------||
E|-----------------------------------------------------------------||

E|------------------------------------------------------------------||
B|-1010101010101010/131313121212-----131313131313131313131313131313-||
G|------------------------------1212--------------------------------||
D|------------------------------------------------------------------||
A|------------------------------------------------------------------||
E|------------------------------------------------------------------||

E|---10-12---10-12---10-----10-12-------------||
B|-8-------8-------8-----10-------10-15-13-12-||
G|--------------------------------------------||
D|--------------------------------------------||
A|--------------------------------------------||
E|--------------------------------------------||
Bridge
E|-------------------------------||
B|-------------------------------||
G|---9-------7-9-10--9-7-----7-9-||
D|-7-.-7-10--------------10------||
A|-.---.-------------------------||
E|-------------------------------||

E|---------------------------||
B|---------------------------||
G|---------------------------||
D|-------5-5-5---------------||
A|-7-7-7-3-3-3-5-5-5-5-5-5-5-||
E|-5-5-5-.-.-.-2-2-2-2-2-2-2-||
   . . .       . . . . . . .
E|-----------------------------------------||
B|-----------------------------------------||
G|---------------------5-5-5---------------||
D|-3---3---3-5---7-7-7-5-5-5---------------||
A|-3-0-3-0-3-5---7-7-7-3-3-3-5-5-5-5-5-5-5-||
E|-1-0-1-0-1-3---5-5-5-------2-2-2-2-2-2-2-||
                             . . . . . . .
E|-----------------------------------------||
B|-----------------------------------------||
G|---------------------5-5-5---------------||
D|-3---3---3-5---7-7-7-5-5-5---------------||
A|-3-0-3-0-3-5---7-7-7-3-3-3-5-5-5-5-5-5-5-||
E|-1-0-1-0-1-3---5-5-5-------2-2-2-2-2-2-2-||
                             . . . . . . .
E|-----------------------------------------||
B|-----------------------------------------||
G|---------------------5-5-5---------------||
D|-3---3---3-5---7-7-7-5-5-5---------------||
A|-3-0-3-0-3-5---7-7-7-3-3-3-5-5-5-5-5-5-5-||
E|-1-0-1-0-1-3---5-5-5-------2-2-2-2-2-2-2-||

E|-----------------------------------------------------------||
B|-----------------------------------------------------------||
G|-------------------------------------------6-6-6-6-6-6-6-6-||
D|-3---3---3-5---3---3---3-5---3---3---3-5-------------------||
A|-3-0-3-0-3-5---3-0-3-0-3-5---3-0-3-0-3-5-------------------||
E|-1-0-1-0-1-3---1-0-1-0-1-3---1-0-1-0-1-3-------------------||
Chorus
E|------------------------------------------------------------------||
B|-1010101010101010/131313121212-----131313131313131313131313131313-||
G|------------------------------1212--------------------------------||
D|------------------------------------------------------------------||
A|------------------------------------------------------------------||
E|------------------------------------------------------------------||

E|---10-12---10-12---10-----10-12----------------------------------||
B|-8-------8-------8-----10-------10-15-13-12-13131313131313131313-||
G|-----------------------------------------------------------------||
D|-----------------------------------------------------------------||
A|-----------------------------------------------------------------||
E|-----------------------------------------------------------------||

E|------------------------------------------------------------------||
B|-1010101010101010/131313121212-----131313131313131313131313131313-||
G|------------------------------1212--------------------------------||
D|------------------------------------------------------------------||
A|------------------------------------------------------------------||
E|------------------------------------------------------------------||

E|---10-12---10-12---10-----10-12----------------------------------||
B|-8-------8-------8-----10-------10-15-13-12-13131313131313131313-||
G|-----------------------------------------------------------------||
D|-----------------------------------------------------------------||
A|-----------------------------------------------------------------||
E|-----------------------------------------------------------------||

E|---10-12---10-12---10-----10-12-------------||
B|-8-------8-------8-----10-------10-15-13-12-||
G|--------------------------------------------||
D|--------------------------------------------||
A|--------------------------------------------||
E|--------------------------------------------||
Outro
E|--------------------------------------------------------------||
B|--------------------------------------------------------------||
G|---9-------7-9-10--9-7-----7-9----9-------7-9-10--9-7-----7-9-||
D|-7-.-7-10--------------10-------7-.-7-10--------------10------||
A|-.---.--------------------------.---.-------------------------||
E|--------------------------------------------------------------||

E|---------------------------||
B|---------------------------||
G|-------5-5-5---------------||
D|-7-7-7-5-5-5---------------||
A|-7-7-7-3-3-3-5x------------||
E|-5-5-5-------2x------------||

E|--------------||
B|--------------||
G|--------------||
D|-3---3---3-5x-||
A|-3-0-3-0-3-5x-||
E|-1-0-1-0-1-3x-||



-----------------------
12.I N T E R L U D E  3
-----------------------

Tuning:Drop D

--------
Guitar 1
--------

E|-------------------------------------------------||
B|-------------------------------------------------||
G|-------------------------------------------------||
D|-----------3-----------3-----------3-----------3-||
A|-5-3-0-3-5---5-3-0-3-5---5-3-0-3-5---5-3-0-3-5---||
D|-.-.-.-.-.---.-.-.-.-.---.-.-.-.-.---.-.-.-.-.---||

E|-----------------------------------------------------||
B|-----------------------------------------------------||
G|-----------------------------------------------*-----||
D|-----------3-----------3-----------3-----------3r0-*-||
A|-1-1-1-1-1---1-1-1-1-1---3-3-3-3-3---3-3-3-3-3-----3-||
D|-.-.-.-.-.---.-.-.-.-.---.-.-.-.-.---.-.-.-.-.-------||

E|-------------------------------------------------||
B|-------------------------------------------------||
G|-------------------------------------------------||
D|-----------3-----------3-----------3-----------3-||
A|-5-3-0-3-5---5-3-0-3-5---5-3-0-3-5---5-3-0-3-5---||
D|-.-.-.-.-.---.-.-.-.-.---.-.-.-.-.---.-.-.-.-.---||

E|--------------------------------------------------------||
B|--------------------------------------------------------||
G|-----------------------------------------------*--------||
D|-----------3-----------3-----------3-----------3---*----||
A|-1-1-1-1-1---1-1-1-1-1---3-3-3-3-3---3-3-3-3-3-----5~~~-||
D|-.-.-.-.-.---.-.-.-.-.---.-.-.-.-.---.-.-.-.-.----------||
*now it's the really distorted effect
E|-------------------------------------------------||
B|-------------------------------------------------||
G|-------------------------------------------------||
D|-----------3-----------3-----------3-----------3-||
A|-5-3-0-3-5---5-3-0-3-5---5-3-0-3-5---5-3-0-3-5---||
D|-------------------------------------------------||

E|-------------------------------------------------||
B|-------------------------------------------------||
G|-------------------------------------------------||
D|-----------3-----------3-----------3-----------3-||
A|-1-1-1-1-1---1-1-1-1-1---3-3-3-3-3---3-3-3-3-3---||
D|-------------------------------------------------||

E|-------------------------------------------------||
B|-------------------------------------------------||
G|-------------------------------------------------||
D|-----------3-----------3-----------3-----------3-||
A|-5-3-0-3-5---5-3-0-3-5---5-3-0-3-5---5-3-0-3-5---||
D|-------------------------------------------------||

E|-------------------------------------------------||
B|-------------------------------------------------||
G|-------------------------------------------------||
D|-----------3-----------3-----------3-----------3-||
A|-1-1-1-1-1---1-1-1-1-1---3-3-3-3-3---3-3-3-3-3---||
D|-------------------------------------------------||

E|------------------------------------------||
B|------------------------------------------||
G|--------------------------------5-5-5-5-5-||
D|-5-5-5-5-7-8-8-8-8-8--3-3-3-3-3-5-5-5-5-5-||
A|-5-5-5-5-7-8-8-8-8-8--3-3-3-3-3-3-3-3-3-3-||
D|-5-5-5-5-7-8-8-8-8-8--3-3-3-3-3-----------||

E|-------------------------------------------||
B|-------------------------------------------||
G|-------------------------------------------||
D|-5-5-5-5-7-8-8-8-8-8--0-0---0-0-0-0x-------||
A|-5-5-5-5-7-8-8-8-8-8--0-0---0-0-0-0x-------||
D|-5-5-5-5-7-8-8-8-8-8--0-0---0-0-0-0x-------||
                        . .   . . . .
E|------------------------------------------||
B|------------------------------------------||
G|--------------------------------5-5-5-5-5-||
D|-5-5-5-5-7-8-8-8-8-8--3-3-3-3-3-5-5-5-5-5-||
A|-5-5-5-5-7-8-8-8-8-8--3-3-3-3-3-3-3-3-3-3-||
D|-5-5-5-5-7-8-8-8-8-8--3-3-3-3-3-----------||

E|-------------------------------------------||
B|-------------------------------------------||
G|-------------------------------------------||
D|-5-5-5-5-7-8-8-8-8-8--0-0---0-0-0-0x-------||
A|-5-5-5-5-7-8-8-8-8-8--0-0---0-0-0-0x-------||
D|-5-5-5-5-7-8-8-8-8-8--0-0---0-0-0-0x-------||
                        . .   . . . .
E|-------------------------------------------------||
B|-------------------------------------------------||
G|-------------------------------------------------||
D|-----------3-----------3-----------3-----------3-||
A|-5-3-0-3-5---5-3-0-3-5---5-3-0-3-5---5-3-0-3-5---||
D|-------------------------------------------------||

E|--------------||
B|--------------||
G|--------------||
D|-^------------||
A|-5~/----------||
D|--------------||

--------
Guitar 2
--------

E|--------------------------------------3---------||
B|-/6---/10----10-/11-10------------3-6---6-5-3-5-||
G|----7-----10-----------12-10/---3---------------||
D|------------------------------------------------||
A|------------------------------------------------||
D|------------------------------------------------||

E|--------------------------------------3---------||
B|-/6---/10----10-/11-10------------3-6---6-5-3-5-||
G|----7-----10-----------12-10/---3---------------||
D|------------------------------------------------||
A|------------------------------------------------||
D|------------------------------------------------||

E|----------------||
B|-6~-------------||
G|----------------||
D|----------------||
A|----------------||
D|----------------||
*now it's the really distorted effect
E|--------------------------------------------||
B|--------------------------------------------||
G|--------------------------------------------||
D|-------3-3--------3-3---------3-3-------3-3-||
A|-5-3-0------5-3-0------5-3-0------5-3-0-----||
D|--------------------------------------------||

E|--------------------------------------------||
B|--------------------------------------------||
G|--------------------------------------------||
D|-------3-3--------3-3--------5-5--------5-5-||
A|-1-1--------1-1--------3-3--------3-3-------||
D|--------------------------------------------||

E|---------------------------------------------------------||
B|---------------------------------------------------------||
G|-10-10-10-9-7-/14-14-14-12-10--10-10-10-9-7--/14-14-12---||
D|---------------------------------------------------------||
A|---------------------------------------------------------||
D|---------------------------------------------------------||

E|-------------------------------------||
B|-------------------------------------||
G|-10-10-10-9-7-/14-14-14-12-10--10~---||
D|-------------------------------------||
A|-------------------------------------||
D|-------------------------------------||

E|---------------------------------------------------------||
B|---------------------------------------------------------||
G|-10-10-10-9-7-/14-14-14-12-10--10-10-10-9-7--/14-14-12---||
D|---------------------------------------------------------||
A|---------------------------------------------------------||
D|---------------------------------------------------------||

E|------------------------------------------------------------||
B|-------------------------------15r13r12-15-15r14r12-15-15~--||
G|-10-10-10-9-7-/14-14-14-12-10-------------------------------||
D|------------------------------------------------------------||
A|------------------------------------------------------------||
D|------------------------------------------------------------||

E|-------------------------------------------------||
B|-------------------------------------------------||
G|-2-0---------2-0---------2-0---------2-0---------||
D|-----3---0-3-----3---0-3-----3---0-3-----3---0-3-||
A|-------3-----------3-----------3-----------3-----||
D|-------------------------------------------------||

E|--------------||
B|--------------||
G|--------------||
D|-7~/----------||
A|-5~/----------||
D|-0~-----------||



--------------------------
13.W A L K  D O N T  R U N
--------------------------

Tuning:Drop D

--------
Guitar 1
--------

Intro-*The intro/verse is played in standard tuning but the rest is in Drop D
E|------------------------------------------------------------------------------------------------------------||
B|------------------------------------------------------------------------------------------------------------||
G|-2-2-2-4-4-4-4-4-4-4-4-4-4--2-2-2-4-4-4-4-4-4-4-4-4-4--6-6-6-7-7-7-7-7-7-7-7-7-7--6-6-6-7-7-7-7-7-7-7-7-7-7-||
D|-x-x-x-x-x-x-x-x-x-x-x-x-x--x-x-x-x-x-x-x-x-x-x-x-x-x--x-x-x-x-x-x-x-x-x-x-x-x-x--x-x-x-x-x-x-x-x-x-x-x-x-x-||
A|-0-0-0-2-2-2-2-2-2-2-2-2-2--0-0-0-2-2-2-2-2-2-2-2-2-2--4-4-4-5-5-5-5-5-5-5-5-5-5--4-4-4-5-5-5-5-5-5-5-5-5-5-||
E|-2-2-2-3-3-3-3-3-3-3-3-3-3--2-2-2-3-3-3-3-3-3-3-3-3-3--5-5-5-7-7-7-7-7-7-7-7-7-7--5-5-5-7-7-7-7-7-7-7-7-7-7-||
Verse
E|------------------------------------------------------------------------------------------------------------||
B|------------------------------------------------------------------------------------------------------------||
G|-2-2-2-4-4-4-4-4-4-4-4-4-4--2-2-2-4-4-4-4-4-4-4-4-4-4--6-6-6-7-7-7-7-7-7-7-7-7-7--6-6-6-7-7-7-7-7-7-7-7-7-7-||
D|-x-x-x-x-x-x-x-x-x-x-x-x-x--x-x-x-x-x-x-x-x-x-x-x-x-x--x-x-x-x-x-x-x-x-x-x-x-x-x--x-x-x-x-x-x-x-x-x-x-x-x-x-||
A|-0-0-0-2-2-2-2-2-2-2-2-2-2--0-0-0-2-2-2-2-2-2-2-2-2-2--4-4-4-5-5-5-5-5-5-5-5-5-5--4-4-4-5-5-5-5-5-5-5-5-5-5-||
E|-2-2-2-3-3-3-3-3-3-3-3-3-3--2-2-2-3-3-3-3-3-3-3-3-3-3--5-5-5-7-7-7-7-7-7-7-7-7-7--5-5-5-7-7-7-7-7-7-7-7-7-7-||

E|------------------------------------------------------------------------------------------------------------||
B|------------------------------------------------------------------------------------------------------------||
G|-2-2-2-4-4-4-4-4-4-4-4-4-4--2-2-2-4-4-4-4-4-4-4-4-4-4--6-6-6-7-7-7-7-7-7-7-7-7-7--6-6-6-7-7-7-7-7-7-7-7-7-7-||
D|-x-x-x-x-x-x-x-x-x-x-x-x-x--x-x-x-x-x-x-x-x-x-x-x-x-x--x-x-x-x-x-x-x-x-x-x-x-x-x--x-x-x-x-x-x-x-x-x-x-x-x-x-||
A|-0-0-0-2-2-2-2-2-2-2-2-2-2--0-0-0-2-2-2-2-2-2-2-2-2-2--4-4-4-5-5-5-5-5-5-5-5-5-5--4-4-4-5-5-5-5-5-5-5-5-5-5-||
E|-2-2-2-3-3-3-3-3-3-3-3-3-3--2-2-2-3-3-3-3-3-3-3-3-3-3--5-5-5-7-7-7-7-7-7-7-7-7-7--5-5-5-7-7-7-7-7-7-7-7-7-7-||

E|------------------------------------------------------------------------------------------------------------||
B|------------------------------------------------------------------------------------------------------------||
G|-2-2-2-4-4-4-4-4-4-4-4-4-4--2-2-2-4-4-4-4-4-4-4-4-4-4--6-6-6-7-7-7-7-7-7-7-7-7-7--6-6-6-7-7-7-7-7-7-7-7-7-7-||
D|-x-x-x-x-x-x-x-x-x-x-x-x-x--x-x-x-x-x-x-x-x-x-x-x-x-x--x-x-x-x-x-x-x-x-x-x-x-x-x--x-x-x-x-x-x-x-x-x-x-x-x-x-||
A|-0-0-0-2-2-2-2-2-2-2-2-2-2--0-0-0-2-2-2-2-2-2-2-2-2-2--4-4-4-5-5-5-5-5-5-5-5-5-5--4-4-4-5-5-5-5-5-5-5-5-5-5-||
E|-2-2-2-3-3-3-3-3-3-3-3-3-3--2-2-2-3-3-3-3-3-3-3-3-3-3--5-5-5-7-7-7-7-7-7-7-7-7-7--5-5-5-7-7-7-7-7-7-7-7-7-7-||
Pre Chorus/Chorus(i don't know what to call it exactly)
E|----------------------------------------------------------x-x-x-||
B|------------------------------------7~----2~----3~--------x-x-x-||
G|-------------------7-7-7-7-7-7-7-7--7~----2~----4~--------x-x-x-||
D|-------------------5-5-5-5-5-5-5-5--7~----2~----4~--------x-x-x-||
A|-7-7-7-7-7-7-7-7-7-5-5-5-5-5-5-5-5--5~----0~----2~--------x-x-x-||
D|-6-6-6-6-6-6-6-6-6-5-5-5-5-5-5-5-5------------------------x-x-x-||

E|----------------------------------------------------------x-x-x-||
B|------------------------------------7~----2~----3~--------x-x-x-||
G|-7-7-7-7-7-7-7-7-7---------7-7-7-7--7~----2~----4~--------x-x-x-||
D|-5-5-5-5-5-5-5-5-5---------5-5-5-5--7~----2~----4~--------x-x-x-||
A|-5-5-5-5-5-5-5-5-5-7-7-7-7-5-5-5-5--5~----0~----2~--------x-x-x-||
D|-5-5-5-5-5-5-5-5-5-6-6-6-6-5-5-5-5------------------------x-x-x-||

E|---------------------------------||
B|---------------------------------||
G|-7-7-7-7-7-7-7-7-7---------7-7---||
D|-5-5-5-5-5-5-5-5-5---------5-5-/-||
A|-5-5-5-5-5-5-5-5-5-7-7-7-7-5-5-/-||
D|-5-5-5-5-5-5-5-5-5-6-6-6-6-5-5-/-||
Post Chorus
E|---------------------------------------------------------||
B|---------------------------------------------------------||
G|-4---------------4---------------4---------------4-------||
D|-4-0-4-0---------4-0-4-0---------4-0-4-0---------4-0-4-0-||
A|-2-0-4-0-----0-1-2-0-4-0-----0-1-2-0-4-0-----0-1-2-0-4-0-||
D|---0-4-0-2-4-------0-4-0-2-4-------0-4-0-2-4-------0-4-0-||
Verse
E|------------------------------------------------------------------------------------------------------------||
B|------------------------------------------------------------------------------------------------------------||
G|-2-2-2-4-4-4-4-4-4-4-4-4-4--2-2-2-4-4-4-4-4-4-4-4-4-4--6-6-6-7-7-7-7-7-7-7-7-7-7--6-6-6-7-7-7-7-7-7-7-7-7-7-||
D|-x-x-x-x-x-x-x-x-x-x-x-x-x--x-x-x-x-x-x-x-x-x-x-x-x-x--x-x-x-x-x-x-x-x-x-x-x-x-x--x-x-x-x-x-x-x-x-x-x-x-x-x-||
A|-0-0-0-2-2-2-2-2-2-2-2-2-2--0-0-0-2-2-2-2-2-2-2-2-2-2--4-4-4-5-5-5-5-5-5-5-5-5-5--4-4-4-5-5-5-5-5-5-5-5-5-5-||
E|-2-2-2-3-3-3-3-3-3-3-3-3-3--2-2-2-3-3-3-3-3-3-3-3-3-3--5-5-5-7-7-7-7-7-7-7-7-7-7--5-5-5-7-7-7-7-7-7-7-7-7-7-||

E|------------------------------------------------------------------------------------------------------------||
B|------------------------------------------------------------------------------------------------------------||
G|-2-2-2-4-4-4-4-4-4-4-4-4-4--2-2-2-4-4-4-4-4-4-4-4-4-4--6-6-6-7-7-7-7-7-7-7-7-7-7--6-6-6-7-7-7-7-7-7-7-7-7-7-||
D|-x-x-x-x-x-x-x-x-x-x-x-x-x--x-x-x-x-x-x-x-x-x-x-x-x-x--x-x-x-x-x-x-x-x-x-x-x-x-x--x-x-x-x-x-x-x-x-x-x-x-x-x-||
A|-0-0-0-2-2-2-2-2-2-2-2-2-2--0-0-0-2-2-2-2-2-2-2-2-2-2--4-4-4-5-5-5-5-5-5-5-5-5-5--4-4-4-5-5-5-5-5-5-5-5-5-5-||
E|-2-2-2-3-3-3-3-3-3-3-3-3-3--2-2-2-3-3-3-3-3-3-3-3-3-3--5-5-5-7-7-7-7-7-7-7-7-7-7--5-5-5-7-7-7-7-7-7-7-7-7-7-||

E|------------------------------------------------------------------------------------------------------------||
B|------------------------------------------------------------------------------------------------------------||
G|-2-2-2-4-4-4-4-4-4-4-4-4-4--2-2-2-4-4-4-4-4-4-4-4-4-4--6-6-6-7-7-7-7-7-7-7-7-7-7--6-6-6-7-7-7-7-7-7-7-7-7-7-||
D|-x-x-x-x-x-x-x-x-x-x-x-x-x--x-x-x-x-x-x-x-x-x-x-x-x-x--x-x-x-x-x-x-x-x-x-x-x-x-x--x-x-x-x-x-x-x-x-x-x-x-x-x-||
A|-0-0-0-2-2-2-2-2-2-2-2-2-2--0-0-0-2-2-2-2-2-2-2-2-2-2--4-4-4-5-5-5-5-5-5-5-5-5-5--4-4-4-5-5-5-5-5-5-5-5-5-5-||
E|-2-2-2-3-3-3-3-3-3-3-3-3-3--2-2-2-3-3-3-3-3-3-3-3-3-3--5-5-5-7-7-7-7-7-7-7-7-7-7--5-5-5-7-7-7-7-7-7-7-7-7-7-||

E|------------------------------------------------------------------------------------------------------------||
B|------------------------------------------------------------------------------------------------------------||
G|-2-2-2-4-4-4-4-4-4-4-4-4-4--2-2-2-4-4-4-4-4-4-4-4-4-4--6-6-6-7-7-7-7-7-7-7-7-7-7--6-6-6-7-7-7-7-7-7-7-7-7-7-||
D|-x-x-x-x-x-x-x-x-x-x-x-x-x--x-x-x-x-x-x-x-x-x-x-x-x-x--x-x-x-x-x-x-x-x-x-x-x-x-x--x-x-x-x-x-x-x-x-x-x-x-x-x-||
A|-0-0-0-2-2-2-2-2-2-2-2-2-2--0-0-0-2-2-2-2-2-2-2-2-2-2--4-4-4-5-5-5-5-5-5-5-5-5-5--4-4-4-5-5-5-5-5-5-5-5-5-5-||
E|-2-2-2-3-3-3-3-3-3-3-3-3-3--2-2-2-3-3-3-3-3-3-3-3-3-3--5-5-5-7-7-7-7-7-7-7-7-7-7--5-5-5-7-7-7-7-7-7-7-7-7-7-||

Pre Chorus/Chorus(i don't know what to call it exactly)
E|----------------------------------------------------------x-x-x-||
B|------------------------------------7~----2~----3~--------x-x-x-||
G|-------------------7-7-7-7-7-7-7-7--7~----2~----4~--------x-x-x-||
D|-------------------5-5-5-5-5-5-5-5--7~----2~----4~--------x-x-x-||
A|-7-7-7-7-7-7-7-7-7-5-5-5-5-5-5-5-5--5~----0~----2~--------x-x-x-||
D|-6-6-6-6-6-6-6-6-6-5-5-5-5-5-5-5-5------------------------x-x-x-||

E|----------------------------------------------------------x-x-x-||
B|------------------------------------7~----2~----3~--------x-x-x-||
G|-7-7-7-7-7-7-7-7-7---------7-7-7-7--7~----2~----4~--------x-x-x-||
D|-5-5-5-5-5-5-5-5-5---------5-5-5-5--7~----2~----4~--------x-x-x-||
A|-5-5-5-5-5-5-5-5-5-7-7-7-7-5-5-5-5--5~----0~----2~--------x-x-x-||
D|-5-5-5-5-5-5-5-5-5-6-6-6-6-5-5-5-5------------------------x-x-x-||

E|--------------------------------||
B|--------------------------------||
G|-7-7-7-7-7-7-7-7-7---------7-7--||
D|-5-5-5-5-5-5-5-5-5---------5-5/-||
A|-5-5-5-5-5-5-5-5-5-7-7-7-7-5-5/-||
D|-5-5-5-5-5-5-5-5-5-6-6-6-6-5-5/-||
Bridge
E|---------|------------------------------------------------------------||
B|---------|------------------------------------------------------------||
G|-4-------|------------------------------------------------------------||
D|-4-0-4-0-|-4-4-4-5-5----5h7r5-------------4-4-4-5-5----5h7r5----------||
A|-2-0-4-0-|-4-4-4-5-5-------------5h7r5----4-4-4-5-5-------------5h7r5-||
D|---0-4-0-|-4-4-4-5-5--55------55-------55-4-4-4-5-5-55-------55-------||
                        ..      ..       ..           ..       ..
E|---------------------------------------------------------------||
B|---------------------------------------------------------------||
G|-----------------6h7r6--------------------------6h7r6----------||
D|----7-7-7-9-9-------------7h9r7----7-7-7-9-9-------------7h9r7-||
A|----7-7-7-9-9----------------------7-7-7-9-9-------------------||
D|-55-7-7-7-9-9-99-------99-------99-7-7-7-9-9-99-------99-------||
   ..           ..       ..       ..           ..       ..
E|---------------------------------------------------------------||
B|---------------------------------------------------------------||
G|-----------------4h5r4----0h2r0-----------------4h5r4----0h2r0-||
D|----7-7-7-5-5----------------------4-4-4-5-5-------------------||
A|----7-7-7-5-5----------------------4-4-4-5-5-------------------||
D|-99-7-7-7-5-5--55------55-------55-4-4-4-5-5-55-------55-------||
   ..            ..      ..       ..           ..       ..
E|-----------------------------------------------------------------------||
B|-----------------------------------------------------------------------||
G|-----------------9h11r9-----------------------------9h11r9-------------||
D|----7-7-7-9-9--------------11h12r11----7-7-7-9-9--------------11h12r11-||
A|----7-7-7-9-9--------------------------7-7-7-9-9-----------------------||
D|-55-7-7-7-9-9-99--------99----------99-7-7-7-9-9-99--------99----------||
   ..           ..        ..          ..           ..        ..
E|----------------------------------------------------------------||
B|----------------------------------------------------------------||
G|----------------------------------------------------------------||
D|-4-4-4-2x-2x-2~--4-4-4-2x-2x-2~--4-4-4-0x-0x-0~--4-4-4-0x-0x-0~-||
A|-4-4-4-2x-2x-2~--4-4-4-2x-2x-2~--4-4-4-0x-0x-0~--4-4-4-0x-0x-0~-||
D|-4-4-4-2x-2x-2~--4-4-4-2x-2x-2~--4-4-4-0x-0x-0~--4-4-4-0x-0x-0~-||

E|----------------------------------------------------------------x-x-x-x-||
B|----------------------------------------------------------------x-x-x-x-||
G|----------------------------------------------------------------x-x-x-x-||
D|-4-4-4-2x-2x-2~--4-4-4-2x-2x-2~--4-4-4-0x-0x-0~--4-4-4-0x-0x-0~-x-x-x-x-||
A|-4-4-4-2x-2x-2~--4-4-4-2x-2x-2~--4-4-4-0x-0x-0~--4-4-4-0x-0x-0~-x-x-x-x-||
D|-4-4-4-2x-2x-2~--4-4-4-2x-2x-2~--4-4-4-0x-0x-0~--4-4-4-0x-0x-0~-x-x-x-x-||
Pre Chorus/Chorus(i don't know what to call it exactly)
E|----------------------------------------------------------x-x-x-||
B|------------------------------------7-7-7-2-2-2-3-3-3-3-3-x-x-x-||
G|-7-7-7-7-7-7-7-7-7---------7-7-7-7--7-7-7-2-2-2-4-4-4-4-4-x-x-x-||
D|-5-5-5-5-5-5-5-5-5---------5-5-5-5--7-7-7-2-2-2-4-4-4-4-4-x-x-x-||
A|-5-5-5-5-5-5-5-5-5-7-7-7-7-5-5-5-5--5-5-5-0-0-0-2-2-2-2-2-x-x-x-||
D|-5-5-5-5-5-5-5-5-5-6-6-6-6-5-5-5-5------------------------x-x-x-||

E|----------------------------------------------------------x-x-x-||
B|------------------------------------7-7-7-2-2-2-3-3-3-3-3-x-x-x-||
G|-7-7-7-7-7-7-7-7-7---------7-7-7-7--7-7-7-2-2-2-4-4-4-4-4-x-x-x-||
D|-5-5-5-5-5-5-5-5-5---------5-5-5-5--7-7-7-2-2-2-4-4-4-4-4-x-x-x-||
A|-5-5-5-5-5-5-5-5-5-7-7-7-7-5-5-5-5--5-5-5-0-0-0-2-2-2-2-2-x-x-x-||
D|-5-5-5-5-5-5-5-5-5-6-6-6-6-5-5-5-5------------------------x-x-x-||

E|-------------------------------------||
B|-------------------------------------||
G|-7-7-7-7-7-7-7-7-7---------7-7-------||
D|-5-5-5-5-5-5-5-5-5---------5-5-----/-||
A|-5-5-5-5-5-5-5-5-5-7-7-7-7-5-5-----/-||
D|-5-5-5-5-5-5-5-5-5-6-6-6-6-5-5-5-5-/-||
                                 . .
Outro
E|--------------------------------------------------------------------||
B|--------------------------------------------------------------------||
G|-4---------------4---------------4---------------4------------------||
D|-4-0-4-0---------4-0-4-0---------4-0-4-0---------4-0-4-0---------^--||
A|-2-0-4-0-----0-1-2-0-4-0-----0-1-2-0-4-0-----0-1-2-0-4-0-----0-1-2~-||
D|---0-4-0-2-4-------0-4-0-2-4-------0-4-0-2-4-------0-4-0-2-4--------||

--------
Guitar 2
--------

Intro(silent)

Verse
E|-------5~---------------------------------5~--7~-5h7r5----------5~-||
B|-7-7-7------------------------------7-7-7-------------7---7-7-7----||
G|-------------------------------------------------------------------||
D|-------------------------------------------------------------------||
A|-------------------------------------------------------------------||
D|-------------------------------------------------------------------||

E|-------5~---------------------------------5~--7~-5h7r5----------5~-||
B|-7-7-7------------------------------7-7-7-------------7---7-7-7----||
G|-------------------------------------------------------------------||
D|-------------------------------------------------------------------||
A|-------------------------------------------------------------------||
D|-------------------------------------------------------------------||

E|-------5~---------------------------------5~--7~-5h7r5----------5~-||
B|-7-7-7------------------------------7-7-7-------------7---7-7-7----||
G|-------------------------------------------------------------------||
D|-------------------------------------------------------------------||
A|-------------------------------------------------------------------||
D|-------------------------------------------------------------------||
Pre Chorus/Chorus
E|---------------------------------------------------------------x-x-x-||
B|---------------------------------------------------------------x-x-x-||
G|-7r6-7-/11-9-7-/9-7-6-7-6----7r6-7-/11-9-7-/9-7-6-7-6----------x-x-x-||
D|--------------------------9---------------------------9-7~-----x-x-x-||
A|---------------------------------------------------------------x-x-x-||
D|---------------------------------------------------------------x-x-x-||

E|-----------------------------------------------------------x-x-x-||
B|-----------------------------------------------------3~----x-x-x-||
G|-7-7-7-7-7-7-7-7-7---------7-7-7-7------------------4~-----x-x-x-||
D|-5-5-5-5-5-5-5-5-5---------5-5-5-5------4-----2------------x-x-x-||
A|-5-5-5-5-5-5-5-5-5-7-7-7-7-5-5-5-5--5-7---4------2---------x-x-x-||
D|-5-5-5-5-5-5-5-5-5-6-6-6-6-5-5-5-5-------------------------x-x-x-||

E|-------------------------------------||
B|-------------------------------------||
G|-7-7-7-7-7-7-7-7-7---------7-7-------||
D|-5-5-5-5-5-5-5-5-5---------5-5-----/-||
A|-5-5-5-5-5-5-5-5-5-7-7-7-7-5-5-----/-||
D|-5-5-5-5-5-5-5-5-5-6-6-6-6-5-5-5-5-/-||
                                 . .
Post Chorus
E|-------------------------------------------------------------------||
B|--------------------------------/7---5-------5-6-7---5-------------||
G|-4---------------4-----------------7---6-6-7-------7---6--7r6h7-4~-||
D|-4-0-4-0---------4-0-4-0-------------------------------------------||
A|-2-0-4-0-----0-1-2-0-4-0-----0-1-----------------------------------||
D|---0-4-0-2-4-------0-4-0-2-4---------------------------------------||
Verse
E|------------------------------------------5~--7~-5h7r5----------5~-||
B|------------------------------------7-7-7-------------7---7-7-7----||
G|-------------------------------------------------------------------||
D|-------------------------------------------------------------------||
A|-------------------------------------------------------------------||
D|-------------------------------------------------------------------||

E|-------5~---------------------------------5~--7~-5h7r5----------5~-||
B|-7-7-7------------------------------7-7-7-------------7---7-7-7----||
G|-------------------------------------------------------------------||
D|-------------------------------------------------------------------||
A|-------------------------------------------------------------------||
D|-------------------------------------------------------------------||

E|-------5~---------------------------------5~--7~-5h7r5----------5~-||
B|-7-7-7------------------------------7-7-7-------------7---7-7-7----||
G|-------------------------------------------------------------------||
D|-------------------------------------------------------------------||
A|-------------------------------------------------------------------||
D|-------------------------------------------------------------------||
Pre Chorus/Chorus
E|---------------------------------------------------------------x-x-x-||
B|---------------------------------------------------------------x-x-x-||
G|-7r6-7-/11-9-7-/9-7-6-7-6----7r6-7-/11-9-7-/9-7-6-7-6----------x-x-x-||
D|--------------------------9---------------------------9-7~-----x-x-x-||
A|---------------------------------------------------------------x-x-x-||
D|---------------------------------------------------------------x-x-x-||

E|-----------------------------------------------------------x-x-x-||
B|-----------------------------------------------------3~----x-x-x-||
G|-7-7-7-7-7-7-7-7-7---------7-7-7-7------------------4~-----x-x-x-||
D|-5-5-5-5-5-5-5-5-5---------5-5-5-5------4-----2------------x-x-x-||
A|-5-5-5-5-5-5-5-5-5-7-7-7-7-5-5-5-5--5-7---4------2---------x-x-x-||
D|-5-5-5-5-5-5-5-5-5-6-6-6-6-5-5-5-5-------------------------x-x-x-||

E|-------------------------------------||
B|-------------------------------------||
G|-7-7-7-7-7-7-7-7-7---------7-7-------||
D|-5-5-5-5-5-5-5-5-5---------5-5-----/-||
A|-5-5-5-5-5-5-5-5-5-7-7-7-7-5-5-----/-||
D|-5-5-5-5-5-5-5-5-5-6-6-6-6-5-5-5-5-/-||
                                 . .
Bridge
E|---------|------------------------------------------------------------||
B|---------|------------------------------------------------------------||
G|-4-------|------------------------------------------------------------||
D|-4-0-4-0-|-4-4-4-5-5----5h7r5-------------4-4-4-5-5----5h7r5----------||
A|-2-0-4-0-|-4-4-4-5-5-------------5h7r5----4-4-4-5-5-------------5h7r5-||
D|---0-4-0-|-4-4-4-5-5--55------55-------55-4-4-4-5-5-55-------55-------||
                        ..      ..       ..           ..       ..
E|---------------------------------------------------------------||
B|---------------------------------------------------------------||
G|-----------------6h7r6--------------------------6h7r6----------||
D|----7-7-7-9-9-------------7h9r7----7-7-7-9-9-------------7h9r7-||
A|----7-7-7-9-9----------------------7-7-7-9-9-------------------||
D|-55-7-7-7-9-9-99-------99-------99-7-7-7-9-9-99-------99-------||
   ..           ..       ..       ..           ..       ..
E|---------------------------------------------------------------||
B|---------------------------------------------------------------||
G|---------------------------------------------------------------||
D|----4-4-4-5-5----5h7r5-------------4-4-4-5-5----5h7r5----------||
A|----4-4-4-5-5-------------5h7r5----4-4-4-5-5-------------5h7r5-||
D|-99-4-4-4-5-5--55------55-------55-4-4-4-5-5-55-------55-------||
   ..                    ..      ..       ..           ..       ..
E|---------------------------------------------------------------||
B|---------------------------------------------------------------||
G|-----------------6h7r6--------------------------6h7r6----------||
D|----7-7-7-9-9-------------7h9r7----7-7-7-9-9-------------7h9r7-||
A|----7-7-7-9-9----------------------7-7-7-9-9-------------------||
D|-55-7-7-7-9-9-99-------99-------99-7-7-7-9-9-99-------99-------||
   ..           ..       ..       ..           ..       ..
E|-----------------------------------------------------------------------||
B|-----------10---8---7---8---7-----7-8-------10---8---7---8---7-----7-8-||
G|-------7-7--.-7-.-7-.-7-.-7-.-7-9-.-.---7-7--.-7-.-7-.-7-.-7-.-7-9-.-.-||
D|-4-4-4-.-.----.---.---.---.---.-.-------.-.----.---.---.---.---.-.-----||
A|-4-4-4-----------------------------------------------------------------||
D|-4-4-4-----------------------------------------------------------------||

E|--------------------------------------------------------------------||
B|--------------------------------------------------------------------||
G|-----12---11---9---11---9----9-11------12---11---9---11---9----9-11-||
D|-9-9--.-9--.-9-.-9--.-9-.-12-.--.--9-9--.-9--.-9-.-9--.-9-.-12-.--.-||
A|-.-.----.----.---.----.----.-------.-.----.----.---.----.----.------||
D|--------------------------------------------------------------------||

E|-----------------------------------------------------------------||
B|-----10---8---7---8---7-----7-8-------10---8---7---8---7-----7-8-||
G|-7-7--.-7-.-7-.-7-.-7-.-7-9-.-.---7-7--.-7-.-7-.-7-.-7-.-7-9-.-.-||
D|-.-.----.---.---.---.---.-.-------.-.----.---.---.---.---.-.-----||
A|-----------------------------------------------------------------||
D|-----------------------------------------------------------------||

E|--------------------------------------------------------------------||
B|--------------------------------------------------------------------||
G|-----12---11---9---11---9----9-11------12---11---9---11---9----9-11-||
D|-9-9--.-9--.-9-.-9--.-9-.-12-.--.--9-9--.-9--.-9-.-9--.-9-.-12-.--.-||
A|-.-.----.----.---.----.----.-------.-.----.----.---.----.----.------||
D|--------------------------------------------------------------------||
Pre Chorus/Chorus
E|------------------------------------------------------------------------------x-x-x-||
B|------------------------------------------------------------------------------x-x-x-||
G|-7r6-7-/11-9-7-/9-7-6-7-6----7r6-7-/11-9-7-/9-7-6-7-6----7-9-11-6-6/7-7-9/7~--x-x-x-||
D|--------------------------9---------------------------9--x-x--x-x-x-x-x-x-x---x-x-x-||
A|---------------------------------------------------------5-7--9-4-4/5-5-7/5~--x-x-x-||
D|------------------------------------------------------------------------------x-x-x-||

E|----------------------------------------------------||
B|-----8---8r7-------10-8-7-----9---7h8r7-----10-8-7--||
G|-7-7---7-----9r7--7--7-7-7--7---7-------7--7--7-7-7-||
D|-.-.---.----------.--.-.----.---.----------.--.-.---||
A|----------------------------------------------------||
D|----------------------------------------------------||

E|-------------------999-1010-121212-101010-99-----||
B|---------77-101010---------------------------10~-||
G|-777-999-----------------------------------------||
D|-------------------------------------------------||
A|-------------------------------------------------||
D|-------------------------------------------------||

E|--------------------------------------------------||
B|-----8---8r7-------10-8-7-----9---7h8r7-----------||
G|-7-7---7-----9r7--7--7-7-7--7---7-------7~--------||
D|-.-.---.----------.--.-.----.---.---------------/-||
A|------------------------------------------------/-||
D|---------------------------------------------55-/-||
                                               ..
E|--------------------------------------------------------------------||
B|--------------------------------/7---5-------5-6-7---5-------5-6-4~-||
G|-4---------------4-----------------7---6-6-7-------7---6-6-7-----4~-||
D|-4-0-4-0---------4-0-4-0--------------------------------------------||
A|-2-0-4-0-----0-1-2-0-4-0-----0-1------------------------------------||
D|---0-4-0-2-4-------0-4-0-2-4----------------------------------------||



---------------------------
14.A  V I E W  T O  S A V E
---------------------------

Tuning:Standard


--------
Guitar 1
--------

Intro
E|---------------------------||
B|---------------------------||
G|---------------------------||
D|---------------------------||
A|-2-5-4---------2-5-4-------||
E|-.-.-.-5-2-5---.-.-.-5-2-5-||
         . . .         . . .
E|---------------------------||
B|---------------------------||
G|---------------------------||
D|---------------------------||
A|-2-5-4---------2-5-4-------||
E|-.-.-.-5-2-5---.-.-.-5-2-5-||
         . . .         . . .
Verse
E|----------------------------------------------------||
B|---7-7---5-5---7-7---5-5------2-2---0-0---2-2---0-0-||
G|---7-7---6-6---7-7---6-6------2-2---0-0---2-2---0-0-||
D|-0-----0-----0-----0--------------------------------||
A|-.-----.-----.-----.--------------------------------||
E|----------------------------3-----3-----3-----3-----||
                              .     .     .     .
E|----------------------------------------------------||
B|---7-7---5-5---7-7---5-5------2-2---0-0---2-2---0-0-||
G|---7-7---6-6---7-7---6-6------2-2---0-0---2-2---0-0-||
D|-0-----0-----0-----0--------------------------------||
A|-.-----.-----.-----.--------------------------------||
E|----------------------------3-----3-----3-----3-----||
                              .     .     .     .
Verse/Pre Chorus(i don't know what it is)
E|--------------------------------------------------||
B|--------------------------------------------------||
G|--------------------------7-7-7-7-7-7-7-7-7-7-6---||
D|-4-4-4-4-4-4-4-4-4-4-4-0--5-5-5-5-5-5-5-5-5-5-4-0-||
A|-2-2-2-2-2-2-2-2-2-2-2-.--.-.-.-.-.-.-.-.-.-.-.-.-||
E|-.-.-.-.-.-.-.-.-.-.-.----------------------------||

E|--------------------------------------------------||
B|--------------------------------------------------||
G|--------------------------7-7-7-7-7-7-7-7-7-7-6---||
D|-4-4-4-4-4-4-4-4-4-4-4-0--5-5-5-5-5-5-5-5-5-5-4-0-||
A|-2-2-2-2-2-2-2-2-2-2-2-.--.-.-.-.-.-.-.-.-.-.-.-.-||
E|-.-.-.-.-.-.-.-.-.-.-.----------------------------||

E|---------------------------||
B|---------------------------||
G|---------------------------||
D|---------------------------||
A|-2-5-4---------2-5-4-------||
E|-.-.-.-5-2-5---.-.-.-5-2-5-||
         . . .         . . .
Chorus
E|-------------------------------------------------||
B|-------------------------2-2-2-2-2-2-2-2-2-2-2-2-||
G|-7-7-7-7-7-7-7-7-7-7-7-7-2-2-2-2-2-2-2-2-2-2-2-2-||
D|-7-7-7-7-7-7-7-7-7-7-7-7-2-2-2-2-2-2-2-2-2-2-2-2-||
A|-5-5-5-5-5-5-5-5-5-5-5-5-0-0-0-0-0-0-0-0-0-0-0-0-||
E|-------------------------------------------------||

E|-------------------------------------------------||
B|-3-3-3-3-3-3-3-3-3-3-3-3-2-2-2-2-2-2-3-3-3-2-2-2-||
G|-4-4-4-4-4-4-4-4-4-4-4-4-2-2-2-2-2-2-4-4-4-2-2-2-||
D|-4-4-4-4-4-4-4-4-4-4-4-4-2-2-2-2-2-2-4-4-4-2-2-2-||
A|-2-2-2-2-2-2-2-2-2-2-2-2-0-0-0-0-0-0-2-2-2-0-0-0-||
E|-------------------------------------------------||


E|--------------------------------------||
B|-------2-2-2-3-3-3-3-3-3--------2-2-2-||
G|-4-4-4-2-2-2-4-4-4-4-4-4--4-4-4-2-2-2-||
D|-5-5-5-2-2-2-4-4-4-4-4-4--5-5-5-2-2-2-||
A|-5-5-5-0-0-0-2-2-2-2-2-2--5-5-5-0-0-0-||
E|-3-3-3--------------------3-3-3-------||

E|---------------------------||
B|---------------------------||
G|---------------------------||
D|---------------------------||
A|-2-5-4---------2-5-4-------||
E|-.-.-.-5-2-5---.-.-.-5-2-5-||
         . . .         . . .
Verse
E|----------------------------------------------------||
B|---7-7---5-5---7-7---5-5------2-2---0-0---2-2---0-0-||
G|---7-7---6-6---7-7---6-6------2-2---0-0---2-2---0-0-||
D|-0-----0-----0-----0--------------------------------||
A|-.-----.-----.-----.--------------------------------||
E|----------------------------3-----3-----3-----3-----||
                              .     .     .     .
E|----------------------------------------------------||
B|---7-7---5-5---7-7---5-5------2-2---0-0---2-2---0-0-||
G|---7-7---6-6---7-7---6-6------2-2---0-0---2-2---0-0-||
D|-0-----0-----0-----0--------------------------------||
A|-.-----.-----.-----.--------------------------------||
E|----------------------------3-----3-----3-----3-----||
                              .     .     .     .
Verse/Pre Chorus
E|-----------------------------------------------||
B|-3-3-3-3x---3-3-3-2-2-2------------------2-2-2-||
G|-4-4-4-4x---4-4-4-2-2-2-4-4-4-4x---4-4-4-2-2-2-||
D|-4-4-4-4x---4-4-4-2-2-2-5-5-5-5x---5-5-5-2-2-2-||
A|-2-2-2-2x---2-2-2-0-0-0-5-5-5-5x---5-5-5-0-0-0-||
E|------------------------3-3-3-3x---3-3-3-------||

E|-----------------------------------------------||
B|-3-3-3-3x---3-3-3-2-2-2------------------2-2-2-||
G|-4-4-4-4x---4-4-4-2-2-2-4-4-4-4x---4-4-4-2-2-2-||
D|-4-4-4-4x---4-4-4-2-2-2-5-5-5-5x---5-5-5-2-2-2-||
A|-2-2-2-2x---2-2-2-0-0-0-5-5-5-5x---5-5-5-0-0-0-||
E|------------------------3-3-3-3x---3-3-3-------||

E|---------------------------||
B|---------------------------||
G|---------------------------||
D|---------------------------||
A|-2-5-4---------2-5-4-------||
E|-.-.-.-5-2-5---.-.-.-5-2-5-||
         . . .         . . .
Chorus
E|-------------------------------------------------||
B|-------------------------2-2-2-2-2-2-2-2-2-2-2-2-||
G|-7-7-7-7-7-7-7-7-7-7-7-7-2-2-2-2-2-2-2-2-2-2-2-2-||
D|-7-7-7-7-7-7-7-7-7-7-7-7-2-2-2-2-2-2-2-2-2-2-2-2-||
A|-5-5-5-5-5-5-5-5-5-5-5-5-0-0-0-0-0-0-0-0-0-0-0-0-||
E|-------------------------------------------------||

E|-------------------------------------------------||
B|-3-3-3-3-3-3-3-3-3-3-3-3-2-2-2-2-2-2-3-3-3-2-2-2-||
G|-4-4-4-4-4-4-4-4-4-4-4-4-2-2-2-2-2-2-4-4-4-2-2-2-||
D|-4-4-4-4-4-4-4-4-4-4-4-4-2-2-2-2-2-2-4-4-4-2-2-2-||
A|-2-2-2-2-2-2-2-2-2-2-2-2-0-0-0-0-0-0-2-2-2-0-0-0-||
E|-------------------------------------------------||

E|--------------------------------------------||
B|-------2-2-2-3-3-3-3-3-3--------2-2-2-3~----||
G|-4-4-4-2-2-2-4-4-4-4-4-4--4-4-4-2-2-2-4~----||
D|-5-5-5-2-2-2-4-4-4-4-4-4--5-5-5-2-2-2-4~----||
A|-5-5-5-0-0-0-2-2-2-2-2-2--5-5-5-0-0-0-2~----||
E|-3-3-3--------------------3-3-3-------------||
Bridge
E|------------------------------------------------------------||
B|------------------------------------------------------------||
G|-6-444-6-7-6-4--6-444-6-7-6-4--6-444-6-7-6-4--6-444-6-7-6-4-||
D|---...------------...------------...------------...---------||
A|------------------------------------------------------------||
E|------------------------------------------------------------||

E|------------------------------------------------------------||
B|------------------------------------------------------------||
G|-6-444-6-7-6-4--6-444-6-7-6-4--6-444-6-7-6-4--6-444-6-7-6-4-||
D|---...------------...------------...------------...---------||
A|------------------------------------------------------------||
E|------------------------------------------------------------||

E|---------------------------------------------------------||
B|---------------------------------------------------------||
G|---------------------------------------------------------||
D|-2------2--------------------5------5------7------7------||
A|-2-2222-2-2222-5-5555-5-5555-5-5555-5-5555-7-7777-7-7777-||
E|-0-0000-0-0000-2-2222-2-2222-3-3333-3-3333-5-5555-5-5555-||
     ....   ....   ....   ....   ....   ....   ....   ....
E|---------------------------------------------------------||
B|---------------------------------------------------------||
G|---------------------------------------------------------||
D|-2------2--------------------5------5------7------7------||
A|-2-2222-2-2222-5-5555-5-5555-5-5555-5-5555-7-7777-7-7777-||
E|-0-0000-0-0000-2-2222-2-2222-3-3333-3-3333-5-5555-5-5555-||
     ....   ....   ....   ....   ....   ....   ....   ....
E|---------------------------||
B|---------------------------||
G|---------------------------||
D|---------------------------||
A|-2-5-4---------2-5-4-------||
E|-------5-2-5---------5-2-5-||
Chorus
E|-------------------------------------------------||
B|-------------------------2-2-2-2-2-2-2-2-2-2-2-2-||
G|-7-7-7-7-7-7-7-7-7-7-7-7-2-2-2-2-2-2-2-2-2-2-2-2-||
D|-7-7-7-7-7-7-7-7-7-7-7-7-2-2-2-2-2-2-2-2-2-2-2-2-||
A|-5-5-5-5-5-5-5-5-5-5-5-5-0-0-0-0-0-0-0-0-0-0-0-0-||
E|-------------------------------------------------||

E|-------------------------------------------------||
B|-3-3-3-3-3-3-3-3-3-3-3-3-2-2-2-2-2-2-3-3-3-2-2-2-||
G|-4-4-4-4-4-4-4-4-4-4-4-4-2-2-2-2-2-2-4-4-4-2-2-2-||
D|-4-4-4-4-4-4-4-4-4-4-4-4-2-2-2-2-2-2-4-4-4-2-2-2-||
A|-2-2-2-2-2-2-2-2-2-2-2-2-0-0-0-0-0-0-2-2-2-0-0-0-||
E|-------------------------------------------------||

E|--------------------------------------||
B|-------2-2-2-3-3-3-3-3-3--------2-2-2-||
G|-4-4-4-2-2-2-4-4-4-4-4-4--4-4-4-2-2-2-||
D|-5-5-5-2-2-2-4-4-4-4-4-4--5-5-5-2-2-2-||
A|-5-5-5-0-0-0-2-2-2-2-2-2--5-5-5-0-0-0-||
E|-3-3-3--------------------3-3-3-------||

E|-------------------------------------------------||
B|-------------------------2-2-2-2-2-2-2-2-2-2-2-2-||
G|-7-7-7-7-7-7-7-7-7-7-7-7-2-2-2-2-2-2-2-2-2-2-2-2-||
D|-7-7-7-7-7-7-7-7-7-7-7-7-2-2-2-2-2-2-2-2-2-2-2-2-||
A|-5-5-5-5-5-5-5-5-5-5-5-5-0-0-0-0-0-0-0-0-0-0-0-0-||
E|-------------------------------------------------||

E|-------------------------------------------------||
B|-3-3-3-3-3-3-3-3-3-3-3-3-2-2-2-2-2-2-3-3-3-2-2-2-||
G|-4-4-4-4-4-4-4-4-4-4-4-4-2-2-2-2-2-2-4-4-4-2-2-2-||
D|-4-4-4-4-4-4-4-4-4-4-4-4-2-2-2-2-2-2-4-4-4-2-2-2-||
A|-2-2-2-2-2-2-2-2-2-2-2-2-0-0-0-0-0-0-2-2-2-0-0-0-||
E|-------------------------------------------------||

E|--------------------------------------------------||
B|-------2-2-2-3-3-3-3-3-3--------2-2-2-3-3-3-3-3-3-||
G|-4-4-4-2-2-2-4-4-4-4-4-4--4-4-4-2-2-2-4-4-4-4-4-4-||
D|-5-5-5-2-2-2-4-4-4-4-4-4--5-5-5-2-2-2-4-4-4-4-4-4-||
A|-5-5-5-0-0-0-2-2-2-2-2-2--5-5-5-0-0-0-2-2-2-2-2-2-||
E|-3-3-3--------------------3-3-3-------------------||

E|--------------------------------------||
B|-------2-2-2-3-3-3-3-3-3--------2-2-2-||
G|-4-4-4-2-2-2-4-4-4-4-4-4--4-4-4-2-2-2-||
D|-5-5-5-2-2-2-4-4-4-4-4-4--5-5-5-2-2-2-||
A|-5-5-5-0-0-0-2-2-2-2-2-2--5-5-5-0-0-0-||
E|-3-3-3--------------------3-3-3-------||
Outro
E|-----------------------------------------------||
B|-3-3-3-3x---3-3-3-2-2-2------------------2-2-2-||
G|-4-4-4-4x---4-4-4-2-2-2-4-4-4-4x---4-4-4-2-2-2-||
D|-4-4-4-4x---4-4-4-2-2-2-5-5-5-5x---5-5-5-2-2-2-||
A|-2-2-2-2x---2-2-2-0-0-0-5-5-5-5x---5-5-5-0-0-0-||
E|------------------------3-3-3-3x---3-3-3-------||

E|-----------------------------------------------||
B|-3-3-3-3x---3-3-3-2-2-2------------------2-2-2-||
G|-4-4-4-4x---4-4-4-2-2-2-4-4-4-4x---4-4-4-2-2-2-||
D|-4-4-4-4x---4-4-4-2-2-2-5-5-5-5x---5-5-5-2-2-2-||
A|-2-2-2-2x---2-2-2-0-0-0-5-5-5-5x---5-5-5-0-0-0-||
E|------------------------3-3-3-3x---3-3-3-------||

E|-----------------------------------------------||
B|-3-3-3-3x---3-3-3-2-2-2------------------2-2-2-||
G|-4-4-4-4x---4-4-4-2-2-2-4-4-4-4x---4-4-4-2-2-2-||
D|-4-4-4-4x---4-4-4-2-2-2-5-5-5-5x---5-5-5-2-2-2-||
A|-2-2-2-2x---2-2-2-0-0-0-5-5-5-5x---5-5-5-0-0-0-||
E|------------------------3-3-3-3x---3-3-3-------||

E|-----------------------------------------------||
B|-3-3-3-3x---3-3-3-2-2-2------------------2-2-2-||
G|-4-4-4-4x---4-4-4-2-2-2-4-4-4-4x---4-4-4-2-2-2-||
D|-4-4-4-4x---4-4-4-2-2-2-5-5-5-5x---5-5-5-2-2-2-||
A|-2-2-2-2x---2-2-2-0-0-0-5-5-5-5x---5-5-5-0-0-0-||
E|------------------------3-3-3-3x---3-3-3-------||

E|------------------||
B|------------------||
G|-4~---------------||
D|-5~---------------||
A|-5~---------------||
E|-3~---------------||


--------
Guitar 2
--------

Intro
E|---------------------------||
B|---------------------------||
G|---------------4-7-6-------||
D|---------------.-.-.-7-4-7-||
A|-2-5-4---------------.-.-.-||
E|-.-.-.-5-2-5---------------||
         . . .
Verse
E|----------------------------------------------------||
B|---7-7---5-5---7-7---5-5----------------------------||
G|---7-7---6-6---7-7---6-6----------------------------||
D|-0-----0-----0-----0--------------7-5-4-------7-5-4-||
A|-.-----.-----.-----.--------2-5-4-------2-5-4-------||
E|----------------------------------------------------||

E|----------------------------------------------------||
B|---7-7---5-5---7-7---5-5----------------------------||
G|---7-7---6-6---7-7---6-6----------------------------||
D|-0-----0-----0-----0--------------7-5-4-------7-5-4-||
A|-.-----.-----.-----.--------2-5-4-------2-5-4-------||
E|----------------------------------------------------||
Verse/Pre Chorus
E|--------------------------------------------------------------||
B|--------------------------------------------------------------||
G|-7-6-4-2~-----2---2-2h4-4-4~----/7-6-4-2~------2---2-2h4-4-4~-||
D|------------4---4----------------------------4---4------------||
A|------------.---.----------------------------.---.------------||
E|--------------------------------------------------------------||
*harmonizing guitar
E|--------------------------------------------------------------||
B|-7-5-3-2~-----2---2-2h3-3-3~----/7-5-3-2~------2---2-2h3-3-3~-||
G|------------4---4----------------------------4---4------------||
D|------------.---.----------------------------.---.------------||
A|--------------------------------------------------------------||
E|--------------------------------------------------------------||

E|---------------------------||
B|---------------------------||
G|---------------4-7-6-------||
D|---------------.-.-.-7-4-7-||
A|-2-5-4---------------.-.-.-||
E|-.-.-.-5-2-5---------------||
         . . .
Chorus
E|-------------------------------------------------||
B|-------------------------2-2-2-2-2-2-------------||
G|-7-7-7-7-7-7-9-9-9111111-2-2-2-2-2-2-9-9-9-7/6-6-||
D|-7-7-7-7-7-7-x-x-x-x-x-x-2-2-2-2-2-2-x-x-x-x-x-x-||
A|-5-5-5-5-5-5-7-7-7-9-9-9-0-0-0-0-0-0-7-7-7-5/4-4-||
E|-------------------------------------------------||

E|-------------------------------------------------||
B|-3-3-3-3-3-3-3-3-3-3-3-3-------------------------||
G|-4-4-4-4-4-4-4-4-4-4-4-4-6-6-6-4-----7-7-7-9-9-9-||
D|-4-4-4-4-4-4-4-4-4-4-4-4-x-x-x-x-----x-x-x-x-x-x-||
A|-2-2-2-2-2-2-2-2-2-2-2-2-4-4-4-2~----5-5-5-7-7-7-||
E|-------------------------------------------------||

E|--------------------------9-9h10r9-----------------------||
B|---------10---10-12-10-------------10------------10---10-||
G|-11-9-11----9----------11----------------11-9-11----9----||
D|---------------------------------------------------------||
A|---------------------------------------------------------||
E|---------------------------------------------------------||
*harmonizing guitar
E|---------------------------------------------------------||
B|-------------------------10-10h12r10---------------------||
G|----------9----9-11-9----------------11-----------9----9-||
D|-12-11-12---12--------12-----------------12-11-12---12---||
A|---------------------------------------------------------||
E|---------------------------------------------------------||

E|---------------------------||
B|---------------------------||
G|---------------4-7-6-------||
D|---------------.-.-.-7-4-7-||
A|-2-5-4---------------.-.-.-||
E|-.-.-.-5-2-5---------------||
         . . .
Verse
E|----------------------------------------------------||
B|---7-7---5-5---7-7---5-5----------------------------||
G|---7-7---6-6---7-7---6-6----------------------------||
D|-0-----0-----0-----0--------------7-5-4-------7-5-4-||
A|-.-----.-----.-----.--------2-5-4-------2-5-4-------||
E|----------------------------------------------------||

E|----------------------------------------------------||
B|---7-7---5-5---7-7---5-5----------------------------||
G|---7-7---6-6---7-7---6-6----------------------------||
D|-0-----0-----0-----0--------------7-5-4-------7-5-4-||
A|-.-----.-----.-----.--------2-5-4-------2-5-4-------||
E|----------------------------------------------------||

Verse/Pre Chorus
E|-----------------------------------------------||
B|-3-3-3-3x---3-3-3-2-2-2------------------2-2-2-||
G|-4-4-4-4x---4-4-4-2-2-2-4-4-4-4x---4-4-4-2-2-2-||
D|-4-4-4-4x---4-4-4-2-2-2-5-5-5-5x---5-5-5-2-2-2-||
A|-2-2-2-2x---2-2-2-0-0-0-5-5-5-5x---5-5-5-0-0-0-||
E|------------------------3-3-3-3x---3-3-3-------||

E|-----------------------------------------------||
B|-3-3-3-3x---3-3-3-2-2-2------------------2-2-2-||
G|-4-4-4-4x---4-4-4-2-2-2-4-4-4-4x---4-4-4-2-2-2-||
D|-4-4-4-4x---4-4-4-2-2-2-5-5-5-5x---5-5-5-2-2-2-||
A|-2-2-2-2x---2-2-2-0-0-0-5-5-5-5x---5-5-5-0-0-0-||
E|------------------------3-3-3-3x---3-3-3-------||
Chorus
E|-------------------------------------------------||
B|-------------------------2-2-2-2-2-2-------------||
G|-7-7-7-7-7-7-9-9-9111111-2-2-2-2-2-2-9-9-9-7/6-6-||
D|-7-7-7-7-7-7-x-x-x-x-x-x-2-2-2-2-2-2-x-x-x-x-x-x-||
A|-5-5-5-5-5-5-7-7-7-9-9-9-0-0-0-0-0-0-7-7-7-5/4-4-||
E|-------------------------------------------------||

E|-------------------------------------------------||
B|-3-3-3-3-3-3-3-3-3-3-3-3-------------------------||
G|-4-4-4-4-4-4-4-4-4-4-4-4-6-6-6-4-----7-7-7-9-9-9-||
D|-4-4-4-4-4-4-4-4-4-4-4-4-x-x-x-x-----x-x-x-x-x-x-||
A|-2-2-2-2-2-2-2-2-2-2-2-2-4-4-4-2~----5-5-5-7-7-7-||
E|-------------------------------------------------||

E|--------------------------9-9h10r9---------------------------||
B|---------10---10-12-10-------------10------------10---10-12~-||
G|-11-9-11----9----------11----------------11-9-11----9--------||
D|-------------------------------------------------------------||
A|-------------------------------------------------------------||
E|-------------------------------------------------------------||
*harmonizing guitar
E|-------------------------------------------------------------||
B|-------------------------10-10h12r10-------------------------||
G|----------9----9-11-9----------------11-----------9----9-11~-||
D|-12-11-12---12--------12-----------------12-11-12---12-------||
A|-------------------------------------------------------------||
E|-------------------------------------------------------------||
Bridge
E|------------------------------------------------------------||
B|------------------------------------------------------------||
G|-2-----2-4-2----2-----2-4-2----2-----2-4-2----2-----2-4-2---||
D|---444-------4----444-------4----444-------4----444-------4-||
A|---...------------...------------...------------...---------||
E|------------------------------------------------------------||

E|------------------------------------------------------------||
B|------------------------------------------------------------||
G|-2-----2-4-2----2-----2-4-2----2-----2-4-2----2-----2-4-2---||
D|---444-------4----444-------4----444-------4----444-------4-||
A|---...------------...------------...------------...---------||
E|------------------------------------------------------------||

E|---------------------------------------------------------||
B|---------------------------------------------------------||
G|---------------------------------------------------------||
D|-2------2--------------------5------5------7------7------||
A|-2-2222-2-2222-5-5555-5-5555-5-5555-5-5555-7-7777-7-7777-||
E|-0-0000-0-0000-2-2222-2-2222-3-3333-3-3333-5-5555-5-5555-||
     ....   ....   ....   ....   ....   ....   ....   ....
E|-------------------------------------------------------------||
B|-------------------------------------------------------------||
G|-9-9999-9-999911111111111111111111-7-7777-7-7777-6-6-6/9-9-9-||
D|-x-xxxx-x-xxxx-x-x-x-x-x-x-x-x-x-x-x-xxxx-x-xxxx-x-x-x-x-x-x-||
A|-7-7777-7-7777-9-9-9-9-9-9-9-9-9-9-5-5555-5-5555-4-4-4/7-7-7-||
E|---....---....---.-.-.-.---.-.-.-.---....---....-------------||
Chorus
E|-------------------------------------------------||
B|-------------------------2-2-2-2-2-2-------------||
G|-7-7-7-7-7-7-9-9-9111111-2-2-2-2-2-2-9-9-9-7/6-6-||
D|-7-7-7-7-7-7-x-x-x-x-x-x-2-2-2-2-2-2-x-x-x-x-x-x-||
A|-5-5-5-5-5-5-7-7-7-9-9-9-0-0-0-0-0-0-7-7-7-5/4-4-||
E|-------------------------------------------------||

E|-------------------------------------------------||
B|-3-3-3-3-3-3-3-3-3-3-3-3-------------------------||
G|-4-4-4-4-4-4-4-4-4-4-4-4-6-6-6-4-----7-7-7-9-9-9-||
D|-4-4-4-4-4-4-4-4-4-4-4-4-x-x-x-x-----x-x-x-x-x-x-||
A|-2-2-2-2-2-2-2-2-2-2-2-2-4-4-4-2~----5-5-5-7-7-7-||
E|-------------------------------------------------||

E|--------------------------9-9h10r9---------------------------||
B|---------10---10-12-10-------------10------------10---10-12~-||
G|-11-9-11----9----------11----------------11-9-11----9--------||
D|-------------------------------------------------------------||
A|-------------------------------------------------------------||
E|-------------------------------------------------------------||
*harmonizing guitar
E|-------------------------------------------------------------||
B|-------------------------10-10h12r10-------------------------||
G|----------9----9-11-9----------------11-----------9----9-11~-||
D|-12-11-12---12--------12-----------------12-11-12---12-------||
A|-------------------------------------------------------------||
E|-------------------------------------------------------------||

E|-------------------------------------------------||
B|-------------------------2-2-2-2-2-2-------------||
G|-7-7-7-7-7-7-9-9-9111111-2-2-2-2-2-2-9-9-9-7/6-6-||
D|-7-7-7-7-7-7-x-x-x-x-x-x-2-2-2-2-2-2-x-x-x-x-x-x-||
A|-5-5-5-5-5-5-7-7-7-9-9-9-0-0-0-0-0-0-7-7-7-5/4-4-||
E|-------------------------------------------------||

E|-------------------------------------------------||
B|-3-3-3-3-3-3-3-3-3-3-3-3-------------------------||
G|-4-4-4-4-4-4-4-4-4-4-4-4-6-6-6-4-----7-7-7-9-9-9-||
D|-4-4-4-4-4-4-4-4-4-4-4-4-x-x-x-x-----x-x-x-x-x-x-||
A|-2-2-2-2-2-2-2-2-2-2-2-2-4-4-4-2~----5-5-5-7-7-7-||
E|-------------------------------------------------||

E|--------------------------9-9h10r9--------------------------------9-9h10r9----||
B|---------10---10-12-10-------------10------------10---10-12-10-------------10-||
G|-11-9-11----9----------11----------------11-9-11----9----------11-------------||
D|------------------------------------------------------------------------------||
A|------------------------------------------------------------------------------||
E|------------------------------------------------------------------------------||

E|--------------------------9-9h10r9---------------------------||
B|---------10---10-12-10-------------10------------10---10-12~-||
G|-11-9-11----9----------11----------------11-9-11----9--------||
D|-------------------------------------------------------------||
A|-------------------------------------------------------------||
E|-------------------------------------------------------------||
*harmonizing guitar
E|--------------------------------------------------------------------------------||
B|-------------------------10-10h12r10-----------------------------10-10h12r10----||
G|----------9----9-11-9----------------11-----------9----9-11-9----------------11-||
D|-12-11-12---12--------12-----------------12-11-12---12--------12----------------||
A|--------------------------------------------------------------------------------||
E|--------------------------------------------------------------------------------||

E|-------------------------------------------------------------||
B|-------------------------10-10h12r10-------------------------||
G|----------9----9-11-9----------------11-----------9----9-11~-||
D|-12-11-12---12--------12-----------------12-11-12---12-------||
A|-------------------------------------------------------------||
E|-------------------------------------------------------------||
Outro
E|-------------------------------------------------------||
B|-3-3-3----------3-3-3-2-2-2----------------------2-2-2-||
G|-4-4-4--------4-4-4-4-2-2-2-4-4-4----------4-4-4-2-2-2-||
D|-4-4-444555777--4-4-4-2-2-2-5-5-5002224445-5-5-5-2-2-2-||
A|-2-2-2........--2-2-2-0-0-0-5-5-5........--5-5-5-0-0-0-||
E|----------------------------3-3-3----------3-3-3-------||

E|-------------------------------------------------------||
B|-3-3-3----------3-3-3-2-2-2----------------------2-2-2-||
G|-4-4-4--------4-4-4-4-2-2-2-4-4-4----------4-4-4-2-2-2-||
D|-4-4-444555777--4-4-4-2-2-2-5-5-5002224445-5-5-5-2-2-2-||
A|-2-2-2........--2-2-2-0-0-0-5-5-5........--5-5-5-0-0-0-||
E|----------------------------3-3-3----------3-3-3-------||

E|-------------------------------------------------------||
B|-3-3-3----------3-3-3-2-2-2----------------------2-2-2-||
G|-4-4-4--------4-4-4-4-2-2-2-4-4-4----------4-4-4-2-2-2-||
D|-4-4-444555777--4-4-4-2-2-2-5-5-5002224445-5-5-5-2-2-2-||
A|-2-2-2........--2-2-2-0-0-0-5-5-5........--5-5-5-0-0-0-||
E|----------------------------3-3-3----------3-3-3-------||

E|-------------------------------------------------------||
B|-3-3-3----------3-3-3-2-2-2----------------------2-2-2-||
G|-4-4-4--------4-4-4-4-2-2-2-4-4-4----------4-4-4-2-2-2-||
D|-4-4-444555777--4-4-4-2-2-2-5-5-5002224445-5-5-5-2-2-2-||
A|-2-2-2........--2-2-2-0-0-0-5-5-5........--5-5-5-0-0-0-||
E|----------------------------3-3-3----------3-3-3-------||

E|------------------||
B|------------------||
G|-4~---------------||
D|-5~---------------||
A|-5~---------------||
E|-3~---------------||



----------------------------------------
15.O N  O U R  O W N/I N T E R L U D E 4
----------------------------------------

Tuning:Drop D(or Standard, it really makes no difference)

--------
Guitar 1
--------

E|-----------------------------||
B|-----------------------------||
G|-------------------------0---||
D|-4~-4-4-7-4------0-----2---2-||
A|-5~---------5-1----1-3-------||
D|-0~--------------------------||

E|-----------------------------||
B|-----------------------------||
G|-------------------------0---||
D|-4~-4-4-7-4------0-----2---2-||
A|-5~---------5-1----1-3-------||
D|-0~--------------------------||

E|-----------------------------||
B|-----------------------------||
G|-------------------------0---||
D|-4~-4-4-7-4------0-----2---2-||
A|-5~---------5-1----1-3-------||
D|-0~--------------------------||

E|-----------------------------||
B|-----------------------------||
G|-------------------------0---||
D|-4~-4-4-7-4------0-----2---2-||
A|-5~---------5-1----1-3-------||
D|-0~--------------------------||

E|-----------------------------||
B|-----------------------------||
G|-------------------------0---||
D|-4~-4-4-7-4------0-----2---2-||
A|-5~---------5-1----1-3-------||
D|-0~--------------------------||

E|-------------------------------------------||
B|-1---1-1-1-1-1-1-1-1-1--1--1-1-1-1-1-1-1-1-||
G|-2---2-2-2-2-2-2-2-2-2--2--2-2-2-2-2-2-2-2-||
D|-3---3-3-3-3-3-3-3-3-3--2--2-2-2-2-2-2-2-2-||
A|-0---0-0-0-0-0-0-0-0-0--0--0-0-0-0-0-0-0-0-||
D|-------------------------------------------||

E|-1---1-1-1-1-1-1-1-1-1---------------------||
B|-3---3-3-3-3-3-3-3-3-3--3--3-3-3-3-3-3-3-3-||
G|-2---2-2-2-2-2-2-2-2-2--3--3-3-3-3-3-3-3-3-||
D|-0---0-0-0-0-0-0-0-0-0--3--3-3-3-3-3-3-3-3-||
A|------------------------1--1-1-1-1-1-1-1-1-||
D|-------------------------------------------||

E|-------------------------------------------||
B|-1---1-1-1-1-1-1-1-1-1--1--1-1-1-1-1-1-1-1-||
G|-2---2-2-2-2-2-2-2-2-2--2--2-2-2-2-2-2-2-2-||
D|-3---3-3-3-3-3-3-3-3-3--2--2-2-2-2-2-2-2-2-||
A|-0---0-0-0-0-0-0-0-0-0--0--0-0-0-0-0-0-0-0-||
D|-------------------------------------------||

E|-1---1-1-1-1-1-1-1-1-1---------------------||
B|-3---3-3-3-3-3-3-3-3-3--3--3-3-3-3-3-3-3-3-||
G|-2---2-2-2-2-2-2-2-2-2--3--3-3-3-3-3-3-3-3-||
D|-0---0-0-0-0-0-0-0-0-0--3--3-3-3-3-3-3-3-3-||
A|------------------------1--1-1-1-1-1-1-1-1-||
D|-------------------------------------------||

E|-----------------------------||
B|-----------------------------||
G|-------------------------0---||
D|-4~-4-4-7-4------0-----2---2-||
A|-5~---------5-1----1-3-------||
D|-0~--------------------------||

E|--------------------------------------||
B|--------------------------------------||
G|-------------------------------0------||
D|-4~-4-4-7-4--------0-------2-------2~-||
A|-5~---------5-1------1-3--------------||
D|-0~-----------------------------------||

-------------------
16.M Y  E S C A P E
-------------------

Tuning:Drop D

--------
Guitar 1
--------

Intro
E|------------------------------||
B|------------------------------||
G|-7-7-7-7-7-7--7-7-9-9-1111-12-||
D|-x-x-x-x-x-x--x-x-x-x--x-x--x-||
A|-5-5-5-5-5-5--5-5-7-7--9-9-10-||
D|-.-.-.-.-.-.------------------||
(slowly lighten up on the palm mutes, you'll have to try it a few
times before you get the timing right)
E|------------------------------------------------------------||
B|------------------------------------------------------------||
G|------------------------------------------------------------||
D|-0-2-0----------0-2-0----------0-2-0----------0-2-0---------||
A|-0-2-0-0--------0-2-0-0--------0-2-0-0--------0-2-0-0-------||
D|-0-2-0-.-5-4-5--0-2-0-.-5-4-5--0-2-0-.-5-4-5--0-2-0-.-5-4-5-||
           . . .          . . .          . . .          . . .
Verse
E|-----------------------------------------------------||
B|-----------------------------------------------------||
G|-3-3-3-3-3-3-5-5-5-5-5-5-----------------------------||
D|-3-3-3-3-3-3-5-5-5-5-5-5-----------------------------||
A|-1-1-1-1-1-1-3-3-3-3-3-3-5-7-5-0-------5-7-5-0-------||
D|---------------------------------5-4-5---------5-4-5-||

E|-----------------------------------------------------||
B|-----------------------------------------------------||
G|-3-3-3-3-3-3-5-5-5-5-5-5-----------------------------||
D|-3-3-3-3-3-3-5-5-5-5-5-5-----------------------------||
A|-1-1-1-1-1-1-3-3-3-3-3-3-5-7-5-0-------5-7-5-0-------||
D|---------------------------------5-4-5---------5-4-5-||

E|-----------------------------------------------------||
B|-----------------------------------------------------||
G|-3-3-3-3-3-3-5-5-5-5-5-5-----------------------------||
D|-3-3-3-3-3-3-5-5-5-5-5-5-----------------------------||
A|-1-1-1-1-1-1-3-3-3-3-3-3-5-7-5-0-------5-7-5-0-------||
D|---------------------------------5-4-5---------5-4-5-||

E|---------------------------------------------------------------||
B|---------------------------------------------------------------||
G|-3-3-3-3-3-3-5-5-5-5-5-5-11-11-11-11-11--11-11-11-11-11--11-11-||
D|-3-3-3-3-3-3-5-5-5-5-5-5--x--x--x--x--x---x--x--x--x--x---x--x-||
A|-1-1-1-1-1-1-3-3-3-3-3-3--9--9--9--9--9---9--9--9--9--9---9--9-||
D|--------------------------.--.------------.--.------------.----||
Chorus
E|-----------------------------------------------------||
B|-----------------------------------------------------||
G|-4-4-4x---4------------------------------------------||
D|-4-4-4x---4-0-0-0x-4---5-5-5x---5-2-2-2x-4-4/5-5-5-5-||
A|-2-2-2x---2-0-0-0x-----5-5-5x---5-2-2-2x-------------||
D|------------0-0-0x---0-5-5-5x---5-2-2-2x-------------||

E|-------------------------------------------------------------||
B|-------------------------------------------------------------||
G|-4-4-4x---4------------11-11-11-11-11--11-11-11-11-11--11-11-||
D|-4-4-4x---4-0-0-0x-4----x--x--x--x--x---x--x--x--x--x---x--x-||
A|-2-2-2x---2-0-0-0x------9--9--9--9--9---9--9--9--9--9---9--9-||
D|------------0-0-0x---0--.--.------------.--.------------.----||

E|-----------------------------------------------------||
B|-----------------------------------------------------||
G|-4-4-4x---4------------------------------------------||
D|-4-4-4x---4-0-0-0x-4---5-5-5x---5-2-2-2x-4-4/5-5-5-5-||
A|-2-2-2x---2-0-0-0x-----5-5-5x---5-2-2-2x-------------||
D|------------0-0-0x---0-5-5-5x---5-2-2-2x-------------||

E|-------------------------------------------------------------||
B|-------------------------------------------------------------||
G|-4-4-4x---4------------11-11-11-11-11--11-11-11-11-11--11-11-||
D|-4-4-4x---4-0-0-0x-4----x--x--x--x--x---x--x--x--x--x---x--x-||
A|-2-2-2x---2-0-0-0x------9--9--9--9--9---9--9--9--9--9---9--9-||
D|------------0-0-0x---0--.--.------------.--.------------.----||
Post Chorus
E|-----------------------------||
B|-----------------------------||
G|-----------------------------||
D|-----------------------------||
A|-5-7-5-0-------5-7-5-0-------||
D|---------5-4-5---------5-4-5-||
Verse
E|-----------------------------------------------------||
B|-----------------------------------------------------||
G|-3-3-3-3-3-3-5-5-5-5-5-5-----------------------------||
D|-3-3-3-3-3-3-5-5-5-5-5-5-----------------------------||
A|-1-1-1-1-1-1-3-3-3-3-3-3-5-7-5-0-------5-7-5-0-------||
D|---------------------------------5-4-5---------5-4-5-||

E|-----------------------------------------------------||
B|-----------------------------------------------------||
G|-3-3-3-3-3-3-5-5-5-5-5-5-----------------------------||
D|-3-3-3-3-3-3-5-5-5-5-5-5-----------------------------||
A|-1-1-1-1-1-1-3-3-3-3-3-3-5-7-5-0-------5-7-5-0-------||
D|---------------------------------5-4-5---------5-4-5-||

E|-----------------------------------------------------||
B|-----------------------------------------------------||
G|-3-3-3-3-3-3-5-5-5-5-5-5-----------------------------||
D|-3-3-3-3-3-3-5-5-5-5-5-5-----------------------------||
A|-1-1-1-1-1-1-3-3-3-3-3-3-5-7-5-0-------5-7-5-0-------||
D|---------------------------------5-4-5---------5-4-5-||

E|---------------------------------------------------------------||
B|---------------------------------------------------------------||
G|-3-3-3-3-3-3-5-5-5-5-5-5-11-11-11-11-11--11-11-11-11-11--11-11-||
D|-3-3-3-3-3-3-5-5-5-5-5-5--x--x--x--x--x---x--x--x--x--x---x--x-||
A|-1-1-1-1-1-1-3-3-3-3-3-3--9--9--9--9--9---9--9--9--9--9---9--9-||
D|--------------------------.--.------------.--.------------.----||
Chorus
E|-----------------------------------------------------||
B|-----------------------------------------------------||
G|-4-4-4x---4------------------------------------------||
D|-4-4-4x---4-0-0-0x-4---5-5-5x---5-2-2-2x-4-4/5-5-5-5-||
A|-2-2-2x---2-0-0-0x-----5-5-5x---5-2-2-2x-------------||
D|------------0-0-0x---0-5-5-5x---5-2-2-2x-------------||

E|-------------------------------------------------------------||
B|-------------------------------------------------------------||
G|-4-4-4x---4------------11-11-11-11-11--11-11-11-11-11--11-11-||
D|-4-4-4x---4-0-0-0x-4----x--x--x--x--x---x--x--x--x--x---x--x-||
A|-2-2-2x---2-0-0-0x------9--9--9--9--9---9--9--9--9--9---9--9-||
D|------------0-0-0x---0--.--.------------.--.------------.----||

E|-----------------------------------------------------||
B|-----------------------------------------------------||
G|-4-4-4x---4------------------------------------------||
D|-4-4-4x---4-0-0-0x-4---5-5-5x---5-2-2-2x-4-4/5-5-5-5-||
A|-2-2-2x---2-0-0-0x-----5-5-5x---5-2-2-2x-------------||
D|------------0-0-0x---0-5-5-5x---5-2-2-2x-------------||

E|-------------------------------------------------------------||
B|-------------------------------------------------------------||
G|-4-4-4x---4------------11-11-11-11-11--11-11-11-11-11--11-11-||
D|-4-4-4x---4-0-0-0x-4----x--x--x--x--x---x--x--x--x--x---x--x-||
A|-2-2-2x---2-0-0-0x------9--9--9--9--9---9--9--9--9--9---9--9-||
D|------------0-0-0x---0--.--.------------.--.------------.----||

E|------------------------------||
B|------------------------------||
G|-1414141414--1414141414--1414-||
D|--x-x-x-x-x---x-x-x-x-x---x-x-||
A|-1212121212--1212121212--1212-||
D|--.-.---------.-.---------.---||
Bridge
E|-------------------------------------------------||
B|-------------------------------------------------||
G|-3-3-3-3-3-3-5-5-5-5-5-5-7-7-7-7-7-7-7-7-7-7-7-7-||
D|-3-3-3-3-3-3-5-5-5-5-5-5-7-7-7-7-7-7-7-7-7-7-7-7-||
A|-1-1-1-1-1-1-3-3-3-3-3-3-5-5-5-5-5-5-5-5-5-5-5-5-||
D|-------------------------------------------------||

E|-------------------------------------------------||
B|-------------------------------------------------||
G|-3-3-3-3-3-3-5-5-5-5-5-5-7-7-7-7-7-7-7-7-7-7-7-7-||
D|-3-3-3-3-3-3-5-5-5-5-5-5-7-7-7-7-7-7-7-7-7-7-7-7-||
A|-1-1-1-1-1-1-3-3-3-3-3-3-5-5-5-5-5-5-5-5-5-5-5-5-||
D|-------------------------------------------------||

E|-------------------------------------------------||
B|-------------------------------------------------||
G|-3-3-3-3-3-3-5-5-5-5-5-5-7-7-7-7-7-7-7-7-7-7-7-7-||
D|-3-3-3-3-3-3-5-5-5-5-5-5-7-7-7-7-7-7-7-7-7-7-7-7-||
A|-1-1-1-1-1-1-3-3-3-3-3-3-5-5-5-5-5-5-5-5-5-5-5-5-||
D|-------------------------------------------------||

E|-------------------------||
B|-------------------------||
G|-3-3-3-3-3-3-5-5-5-5-5-5-||
D|-3-3-3-3-3-3-5-5-5-5-5-5-||
A|-1-1-1-1-1-1-3-3-3-3-3-3-||
D|-------------------------||

E|-----------------------------||
B|-----------------------------||
G|-------------------------0---||
D|-4~-4-4-7-4------0-----2-----||
A|-5~---------5-1----1-3-------||
D|-----------------------------||

E|-----------------------------||
B|-----------------------------||
G|-------------------------0---||
D|-4~-4-4-7-4------0-----2-----||
A|-5~---------5-1----1-3-------||
D|-0~--------------------------||

E|-----------------------------||
B|-----------------------------||
G|-------------------------0---||
D|-4~-4-4-7-4------0-----2-----||
A|-5~---------5-1----1-3-------||
D|-0~--------------------------||

E|-----------------------------||
B|-----------------------------||
G|-------------------------0---||
D|-4~-4-4-7-4------0-----2-----||
A|-5~---------5-1----1-3-------||
D|-0~--------------------------||

E|-----------------------------||
B|-----------------------------||
G|-------------------------0---||
D|-4~-4-4-7-4------0-----2-----||
A|-5~---------5-1----1-3-------||
D|-0~--------------------------||
Intro
E|------------------------------||
B|------------------------------||
G|-7-7-7-7-7-7--7-7-9-9-1111-12-||
D|-x-x-x-x-x-x--x-x-x-x--x-x--x-||
A|-5-5-5-5-5-5--5-5-7-7--9-9-10-||
D|-.-.-.-.-.-.------------------||
Chorus
E|-----------------------------------------||
B|-----------------------------------------||
G|-7-7-7/---4------------------------------||
D|-x-x-x----4-0-0-0x---0-5-5-5x---5-2-2-2x-||
A|-5-5-5/---2-0-0-0x---0-5-5-5x---5-2-2-2x-||
D|------------0-0-0x---0-5-5-5x---5-2-2-2x-||

E|----------------------------------------------------||
B|----------------------------------------------------||
G|------------------------------------9-9-9-910101010-||
D|-2-5-5-5x---5-2-2-2x---2-5-5-5x---5-7-7-7-7-8-8-8-8-||
A|-2-5-5-5x---5-2-2-2x---2-5-5-5x---5-7-7-7-7-8-8-8-8-||
D|-2-5-5-5x---5-2-2-2x---2-5-5-5x---5-7-7-7-7-8-8-8-8-||

E|-----------------------------------------||
B|-----------------------------------------||
G|-4-4-4x---4------------------------------||
D|-4-4-4x---4-0-0-0x---0-5-5-5x---5-2-2-2x-||
A|-2-2-2x---2-0-0-0x---0-5-5-5x---5-2-2-2x-||
D|------------0-0-0x---0-5-5-5x---5-2-2-2x-||

E|----------------------------------------------------||
B|----------------------------------------------------||
G|------------------------------------9-9-9-910101010-||
D|-2-5-5-5x---5-2-2-2x---2-5-5-5x---5-7-7-7-7-8-8-8-8-||
A|-2-5-5-5x---5-2-2-2x---2-5-5-5x---5-7-7-7-7-8-8-8-8-||
D|-2-5-5-5x---5-2-2-2x---2-5-5-5x---5-7-7-7-7-8-8-8-8-||

E|---------------------------------------------------||
B|---------------------------------------------------||
G|-4-4-4-4-4-4---------------------------------------||
D|-4-4-4-4-4-4-0-0-0-0-0-0-0-5-5-5-5-5-5-5-2-2-2-2-2-||
A|-2-2-2-2-2-2-0-0-0-0-0-0-0-5-5-5-5-5-5-5-2-2-2-2-2-||
D|-------------0-0-0-0-0-0-0-5-5-5-5-5-5-5-2-2-2-2-2-||

E|-------------------------------------------------------------||
B|-------------------------------------------------------------||
G|---------------------------------------------9-9-9-910101010-||
D|-2-5-5-5-5-5-5-5-2-2-2-2-2-2-2-5-5-5-5-5-5-5-7-7-7-7-8-8-8-8-||
A|-2-5-5-5-5-5-5-5-2-2-2-2-2-2-2-5-5-5-5-5-5-5-7-7-7-7-8-8-8-8-||
D|-2-5-5-5-5-5-5-5-2-2-2-2-2-2-2-5-5-5-5-5-5-5-7-7-7-7-8-8-8-8-||
Outro
E|-------------------------------------------||
B|-------------------------------------------||
G|-------------------------------------------||
D|-------------------------------------------||
A|-5-7-5-0-------5-7-5-0-------5-7-5-0-------||
D|---------5-4-5---------5-4-5---------5-4-5-||
Ending
E|----||
B|----||
G|----||
D|----||
A|-5/-||
D|----||

---------
Guitar 2
---------
*There are about five guitars in this song for the lead so i have the verse leads and the
solo sorted out at the very bottom

Intro
E|------------------------------||
B|------------------------------||
G|-111111111111--1111-9-9-7-7-6-||
D|--x-x-x-x-x-x---x-x-x-x-x-x-x-||
A|--9-9-9-9-9-9---9-9-7-7-5-5-4-||
D|--.-.-.-.-.-.-----------------||

E|------------------------------------------------------------||
B|------------------------------------------------------------||
G|------------------------------------------------------------||
D|-0-2-0----------0-2-0----------0-2-0----------0-2-0---------||
A|-0-2-0----------0-2-0----------0-2-0----------0-2-0---------||
D|-0-2-0----------0-2-0----------0-2-0----------0-2-0---------||
Verse
E|-----------------------------------------------------||
B|-----------------------------------------------------||
G|-3-3-3-3-3-3-5-5-5-5-5-5-----------------------------||
D|-3-3-3-3-3-3-5-5-5-5-5-5-----------------------------||
A|-1-1-1-1-1-1-3-3-3-3-3-3-5-7-5-0-------5-7-5-0-------||
D|---------------------------------5-4-5---------5-4-5-||

E|-----------------------------------------------------||
B|-----------------------------------------------------||
G|-3-3-3-3-3-3-5-5-5-5-5-5-----------------------------||
D|-3-3-3-3-3-3-5-5-5-5-5-5-----------------------------||
A|-1-1-1-1-1-1-3-3-3-3-3-3-5-7-5-0-------5-7-5-0-------||
D|---------------------------------5-4-5---------5-4-5-||

E|-----------------------------------------------------||
B|-----------------------------------------------------||
G|-3-3-3-3-3-3-5-5-5-5-5-5-----------------------------||
D|-3-3-3-3-3-3-5-5-5-5-5-5-----------------------------||
A|-1-1-1-1-1-1-3-3-3-3-3-3-5-7-5-0-------5-7-5-0-------||
D|---------------------------------5-4-5---------5-4-5-||

E|----------------------------------------------------||
B|----------------------------------------------------||
G|-3-3-3-3-3-3-5-5-5-5-5-5----------------------------||
D|-3-3-3-3-3-3-5-5-5-5-5-5----------------------------||
A|-1-1-1-1-1-1-3-3-3-3-3-3------5-5-5------5-5-5----5-||
D|--------------------------0-0--0-----0-0--0-----00--||
                            . .  .     . .  .     ..
Chorus
E|-----------------------------------------------------||
B|-----------------------------------------------------||
G|-4-4-4x---4------------------------------------------||
D|-4-4-4x---4-0-0-0x-4---5-5-5x---5-2-2-2x-4-4/5-5-5-5-||
A|-2-2-2x---2-0-0-0x-----5-5-5x---5-2-2-2x-------------||
D|------------0-0-0x---0-5-5-5x---5-2-2-2x-------------||

E|-------------------------------------------------||
B|-------------------------------------------------||
G|-4-4-4x---4--------------------------------------||
D|-4-4-4x---4-0-0-0x-4-----------------------------||
A|-2-2-2x---2-0-0-0x---------5-5-5------5-5-5----5-||
D|------------0-0-0x---0-0-0--0-----0-0--0----00---||
                         . .  .     . .  .    ..
E|-----------------------------------------------------||
B|-----------------------------------------------------||
G|-4-4-4x---4------------------------------------------||
D|-4-4-4x---4-0-0-0x-4---5-5-5x---5-2-2-2x-4-4/5-5-5-5-||
A|-2-2-2x---2-0-0-0x-----5-5-5x---5-2-2-2x-------------||
D|------------0-0-0x---0-5-5-5x---5-2-2-2x-------------||

E|-------------------------------------------------||
B|-------------------------------------------------||
G|-4-4-4x---4--------------------------------------||
D|-4-4-4x---4-0-0-0x-4-----------------------------||
A|-2-2-2x---2-0-0-0x---------5-5-5------5-5-5----5-||
D|------------0-0-0x---0-0-0--0-----0-0--0----00---||
                         . .  .     . .  .    ..
Post Chorus
E|-------------------------------||
B|-------------------------------||
G|-------------------------------||
D|-0-2-0----------0-2-0----------||
A|-0-2-0----------0-2-0----------||
D|-0-2-0----------0-2-0----------||
Verse
E|-----------------------------------------------------||
B|-----------------------------------------------------||
G|-3-3-3-3-3-3-5-5-5-5-5-5-----------------------------||
D|-3-3-3-3-3-3-5-5-5-5-5-5-----------------------------||
A|-1-1-1-1-1-1-3-3-3-3-3-3-----------------------------||
D|-----------------------------------------------------||

E|-----------------------------------------------------||
B|-----------------------------------------------------||
G|-3-3-3-3-3-3-5-5-5-5-5-5-----------------------------||
D|-3-3-3-3-3-3-5-5-5-5-5-5-----------------------------||
A|-1-1-1-1-1-1-3-3-3-3-3-3-5-7-5-0-------5-7-5-0-------||
D|---------------------------------5-4-5---------5-4-5-||

E|-----------------------------------------------------||
B|-----------------------------------------------------||
G|-3-3-3-3-3-3-5-5-5-5-5-5-----------------------------||
D|-3-3-3-3-3-3-5-5-5-5-5-5-----------------------------||
A|-1-1-1-1-1-1-3-3-3-3-3-3-5-7-5-0-------5-7-5-0-------||
D|---------------------------------5-4-5---------5-4-5-||

E|----------------------------------------------------||
B|----------------------------------------------------||
G|-3-3-3-3-3-3-5-5-5-5-5-5--7-7-7-7-7--7-7-7-7-7--7-7-||
D|-3-3-3-3-3-3-5-5-5-5-5-5--x-x-x-x-x--x-x-x-x-x--x-x-||
A|-1-1-1-1-1-1-3-3-3-3-3-3--5-5-5-5-5--5-5-5-5-5--5-5-||
D|--------------------------.-.--------.-.--------.---||
Chorus
E|-----------------------------------------------------||
B|-----------------------------------------------------||
G|-4-4-4x---4------------------------------4-4/5-5-5-5-||
D|-4-4-4x---4-0-0-0x-4---5-5-5x---5-2-2-2x-------------||
A|-2-2-2x---2-0-0-0x-----5-5-5x---5-2-2-2x-------------||
D|------------0-0-0x---0-5-5-5x---5-2-2-2x-------------||

E|-------------------------------------------------||
B|-------------------------------------------------||
G|-4-4-4x---4--------------------------------------||
D|-4-4-4x---4-0-0-0x-4-----------------------------||
A|-2-2-2x---2-0-0-0x---------5-5-5------5-5-5----5-||
D|------------0-0-0x---0-0-0--0-----0-0--0----00---||
                         . .  .     . .  .    ..
E|-----------------------------------------------------||
B|-----------------------------------------------------||
G|-4-4-4x---4------------------------------4-4/5-5-5-5-||
D|-4-4-4x---4-0-0-0x-4---5-5-5x---5-2-2-2x-------------||
A|-2-2-2x---2-0-0-0x-----5-5-5x---5-2-2-2x-------------||
D|------------0-0-0x---0-5-5-5x---5-2-2-2x-------------||

E|-------------------------------------------------||
B|-------------------------------------------------||
G|-4-4-4x---4--------------------------------------||
D|-4-4-4x---4-0-0-0x-4-----------------------------||
A|-2-2-2x---2-0-0-0x---------5-5-5------5-5-5----5-||
D|------------0-0-0x---0-0-0--0-----0-0--0----00---||
                         . .  .     . .  .    ..
E|---------------------------||
B|---------------------------||
G|---------------------------||
D|---------------------------||
A|-----5-5-5------5-5-5----5-||
D|-0-0--0-----0-0--0----00---||
   . .  .     . .  .    ..

Bridge
E|-------------------------------------------------||
B|-------------------------------------------------||
G|-3-3-3-3-3-3-5-5-5-5-5-5-7-7-7-7-7-7-7-7-7-7-7-7-||
D|-3-3-3-3-3-3-5-5-5-5-5-5-7-7-7-7-7-7-7-7-7-7-7-7-||
A|-1-1-1-1-1-1-3-3-3-3-3-3-5-5-5-5-5-5-5-5-5-5-5-5-||
D|-------------------------------------------------||

E|-------------------------------------------------||
B|-------------------------------------------------||
G|-3-3-3-3-3-3-5-5-5-5-5-5-7-7-7-7-7-7-7-7-7-7-7-7-||
D|-3-3-3-3-3-3-5-5-5-5-5-5-7-7-7-7-7-7-7-7-7-7-7-7-||
A|-1-1-1-1-1-1-3-3-3-3-3-3-5-5-5-5-5-5-5-5-5-5-5-5-||
D|-------------------------------------------------||

E|-------------------------------------------------||
B|-------------------------------------------------||
G|-3-3-3-3-3-3-5-5-5-5-5-5-7-7-7-7-7-7-7-7-7-7-7-7-||
D|-3-3-3-3-3-3-5-5-5-5-5-5-7-7-7-7-7-7-7-7-7-7-7-7-||
A|-1-1-1-1-1-1-3-3-3-3-3-3-5-5-5-5-5-5-5-5-5-5-5-5-||
D|-------------------------------------------------||

E|-------------------------||
B|-------------------------||
G|-3-3-3-3-3-3-5-5-5-5-5-5-||
D|-3-3-3-3-3-3-5-5-5-5-5-5-||
A|-1-1-1-1-1-1-3-3-3-3-3-3-||
D|-------------------------||

Then this guitar is silent for the rest of the bridge

Intro
E|------------------------------||
B|------------------------------||
G|-111111111111--1111-9-9-7-7-6-||
D|--x-x-x-x-x-x---x-x-x-x-x-x-x-||
A|--9-9-9-9-9-9---9-9-7-7-5-5-4-||
D|--.-.-.-.-.-.-----------------||
Chorus
E|-----------------------------------------||
B|-----------------------------------------||
G|111111/---4------------------------------||
D|-x-x-x----4-0-0-0x-4---5-5-5x---5-2-2-2x-||
A|-9-9-9/---2-0-0-0x-----5-5-5x---5-2-2-2x-||
D|------------0-0-0x---0-5-5-5x---5-2-2-2x-||

E|----------------------------------------------------||
B|----------------------------------------------------||
G|------------------------------------9-9-9-910101010-||
D|-2-5-5-5x---5-2-2-2x---2-5-5-5x---5-7-7-7-7-8-8-8-8-||
A|-2-5-5-5x---5-2-2-2x---2-5-5-5x---5-7-7-7-7-8-8-8-8-||
D|-2-5-5-5x---5-2-2-2x---2-5-5-5x---5-7-7-7-7-8-8-8-8-||

E|-----------------------------------------||
B|-----------------------------------------||
G|-4-4-4x---4------------------------------||
D|-4-4-4x---4-0-0-0x---0-5-5-5x---5-2-2-2x-||
A|-2-2-2x---2-0-0-0x---0-5-5-5x---5-2-2-2x-||
D|------------0-0-0x---0-5-5-5x---5-2-2-2x-||

E|----------------------------------------------------||
B|----------------------------------------------------||
G|------------------------------------9-9-9-910101010-||
D|-2-5-5-5x---5-2-2-2x---2-5-5-5x---5-7-7-7-7-8-8-8-8-||
A|-2-5-5-5x---5-2-2-2x---2-5-5-5x---5-7-7-7-7-8-8-8-8-||
D|-2-5-5-5x---5-2-2-2x---2-5-5-5x---5-7-7-7-7-8-8-8-8-||

E|---------------------------------------------------||
B|---------------------------------------------------||
G|-4-4-4-4-4-4---------------------------------------||
D|-4-4-4-4-4-4-0-0-0-0-0-0-0-5-5-5-5-5-5-5-2-2-2-2-2-||
A|-2-2-2-2-2-2-0-0-0-0-0-0-0-5-5-5-5-5-5-5-2-2-2-2-2-||
D|-------------0-0-0-0-0-0-0-5-5-5-5-5-5-5-2-2-2-2-2-||

E|-------------------------------------------------------------||
B|-------------------------------------------------------------||
G|---------------------------------------------9-9-9-910101010-||
D|-2-5-5-5-5-5-5-5-2-2-2-2-2-2-2-5-5-5-5-5-5-5-7-7-7-7-8-8-8-8-||
A|-2-5-5-5-5-5-5-5-2-2-2-2-2-2-2-5-5-5-5-5-5-5-7-7-7-7-8-8-8-8-||
D|-2-5-5-5-5-5-5-5-2-2-2-2-2-2-2-5-5-5-5-5-5-5-7-7-7-7-8-8-8-8-||
Outro
E|----------------------------------------------||
B|----------------------------------------------||
G|----------------------------------------------||
D|-0-2-0----------0-2-0----------0-2-0----------||
A|-0-2-0----------0-2-0----------0-2-0----------||
D|-0-2-0----------0-2-0----------0-2-0----------||
Ending
E|----||
B|----||
G|----||
D|----||
A|-5/-||
D|----||

------------------
Guitars 3,4, and 5
------------------
1st Verse
Guitar 3(Right Speaker)
E|-----------------------------------------------------||
B|-----------------------------------------------------||
G|-/15~---17-12~---14-11~-----------/15~---17-12~---14-||
D|-----------------------------------------------------||
A|-----------------------------------------------------||
D|-----------------------------------------------------||
Guitar 4(Left Speaker)
E|-----------------------------------------------------||
B|-----------------------------------------------------||
G|-/7~----9-10~----9-7~------------/7~-----9-10~-----9-||
D|-----------------------------------------------------||
A|-----------------------------------------------------||
D|-----------------------------------------------------||
Chorus
Guitar 3(Right Speaker)
E|----------14--------------------17--------------------14-----------------------------------||
B|-15-17-15----17-15-17--15-17-15----17-15-17--15-17-15----15-17-15--15-17-15-15-------------||
G|-------------------------------------------------------------------------------14/12-12-12-||
D|-------------------------------------------------------------------------------------------||
A|-------------------------------------------------------------------------------------------||
D|-------------------------------------------------------------------------------------------||

E|----------14--------------------17----------||
B|-15-17-15----17-15-17--15-17-15----17-15-17-||
G|--------------------------------------------||
D|--------------------------------------------||
A|--------------------------------------------||
D|--------------------------------------------||
2nd Verse
Guitar 4(Left Speaker, it comes in first)
E|---------------(elevens)--------------------------------||
B|--151515151515-1111111111111-10101010101010101010101010-||
G|--------------------------------------------------------||
D|--------------------------------------------------------||
A|--------------------------------------------------------||
D|--------------------------------------------------------||
Guitar 3(Right Speaker, comes in when guitar 4 is done)
E|-/13----------------13-/15----------------15-||
B|-----15----------15--------17----------17----||
G|--------15----15--------------17----17-------||
D|-----------15--------------------17----------||
A|---------------------------------------------||
D|---------------------------------------------||
Chorus
Guitar 3(Right Speaker)
E|----------14--------------------17--------------------14-----------------------------------||
B|-15-17-15----17-15-17--15-17-15----17-15-17--15-17-15----15-17-15--15-17-15-15-------------||
G|-------------------------------------------------------------------------------14/12-12-12-||
D|-------------------------------------------------------------------------------------------||
A|-------------------------------------------------------------------------------------------||
D|-------------------------------------------------------------------------------------------||

E|----------14--------------------17----------||
B|-15-17-15----17-15-17--15-17-15----17-15-17-||
G|--------------------------------------------||
D|--------------------------------------------||
A|--------------------------------------------||
D|--------------------------------------------||
Bridge
Guitar 5(Center/Both Speakers)[1:37]
E|---------------------------------------||
B|---------------------------------------||
G|-1010101010-9-7----121212121212-11~----||
D|----------------10---------------------||
A|---------------------------------------||
D|---------------------------------------||
[1:47]
E|-10/17~------18-17-15-14-15-14~----15r14---------||
B|-----------------------------------------15~-----||
G|-------------------------------------------------||
D|-------------------------------------------------||
A|-------------------------------------------------||
D|-------------------------------------------------||
Guitar 4(Left Speaker)[1:40]-extremely fast riff
E|-----------------------------------------------------------------------||
B|-14h15r14r12-12h14r12h15r14-10h12r10h14r12-8h10r8h12r8-7h8r7--5h7r5----||
G|------------------------------------------------------------7-------7~-||
D|-----------------------------------------------------------------------||
A|-----------------------------------------------------------------------||
D|-----------------------------------------------------------------------||
[1:42]
E|--------------------------------||
B|-^-(keep moving back and forth)-||
G|-7~-----------------------------||
D|--------------------------------||
A|--------------------------------||
D|--------------------------------||
[1:49]
E|---2r0h2-5-------2-2r0r2-5-2r0h2-||
B|-3---------3r2h3-----------------||
G|---------------------------------||
D|---------------------------------||
A|---------------------------------||
D|---------------------------------||
[1:52]-another extremely fast riff, i doubt it's right but it sounds good
E|---------15-15h17r15r13-13h15r13r12-12h13r12r10-10h12r10r9-9h10r9-10----------------------||
B|-15h17h18------------------------------------------------------------13-11-10-------------||
G|----------------------------------------------------------------------.--.--.-12-10-9-7~/-||
D|-------------------------------------------------------------------------------.--.-.-----||
A|------------------------------------------------------------------------------------------||
D|------------------------------------------------------------------------------------------||
[1:57]
E|--------------------------------||
B|-3/10~---11-10-8-7-8-7~--8r7----||
G|-----------------------------7~-||
D|--------------------------------||
A|--------------------------------||
D|--------------------------------||
Guitar 3(Right Speaker)[1:42]
E|-6------6-8-5--------------------||
B|---6-----------------7h8r7---10~-||
G|-----7-----------7-9-------7-----||
D|---------------------------------||
A|---------------------------------||
D|---------------------------------||
[1:48]
E|-------------------||
B|-6~--5~-----3~-----||
G|-------------------||
D|-------------------||
A|-------------------||
D|-------------------||
Chorus
Guitar 3(Right Speaker)
E|----------14--------------------17--------------------14-----------------------------------||
B|-15-17-15----17-15-17--15-17-15----17-15-17--15-17-15----15-17-15--15-17-15-15-------------||
G|-------------------------------------------------------------------------------14/12-12-12-||
D|-------------------------------------------------------------------------------------------||
A|-------------------------------------------------------------------------------------------||
D|-------------------------------------------------------------------------------------------||

E|----------14--------------------17--------------------14--------------------------------||
B|-15-17-15----17-15-17--15-17-15----17-15-17--15-17-15----15-17-15--15-17-15-18-17-15-17-||
G|----------------------------------------------------------------------------------------||
D|----------------------------------------------------------------------------------------||
A|----------------------------------------------------------------------------------------||
D|----------------------------------------------------------------------------------------||

done....i'm pretty sure about the accuracy of each tab so enjoy! which you probably are enjoying
this if you made it this far down to read this little comment
Comments