Rufio - Above Me Chords & Tabs

 

Above Me Chords & Tabs

Rufio Chords & Tabs

Version: 3 Type: Tab 0 ratings
1 star 2 stars 3 stars 4 stars 5 stars
comments

Above Me Tab

   
-------------------------------------------------------------------------------
                             ABOVE ME - Rufio
-------------------------------------------------------------------------------

By:  David 

hey finally i got the Rufio tabs up...ill try to tab out the whole album for Perhaps, I 
Suppose as soon as I can...late

PM... - palm mute
/ - slide
\ - slide
3x
3x - mute after strumming
1x

GUITAR 1'S PARTS:
Intro:  Guitar 1  (6x)  (THIS IS SOME FAST ACTION!)
e|---------------------------------------------------------------------------|
B|---------------------------------------------------------------------------|
G|----10-----9---10-----10-----9---10-------10----12----10----10----10----9--|
D|7-7----7-7---7----8-8----8-8---8----12-12----12----12----10----10----10----|
A|---------------------------------------------------------------------------|
E|---------------------------------------------------------------------------|
 PM.    ...   .    ...    ...   .    .....    ..    ..    ..    ..    ..

Intro Cont'd:  Guitar 1
e|---------|
B|---------|
G|---9-----|
D|10-------|
A|---------|
E|---------|
 PM

Bridge:  Guitar 1  (Right before verse)
e|---------------------------------------------------------------------------|
B|---------------------------------------------------------------------------|
G|3-3-3-3-3-3-3-3-3-3-3-3x---------------------------------------------------|
D|3-3-3-3-3-3-3-3-3-3-3-3x---------------------------------------------------|
A|1-1-1-1-1-1-1-1-1-1-1-1x-10/12-10-8-10-8-7-8-7-----------------------------|
E|-----------------------------------------------8---------------------------|

Verse:  Guitar 1  "If I were to walk..."  (2x)
e|---------------------------------------------------------------------------|
B|---------------------------------------------------------------------------|
G|7-7-7-7-7-7-7-7---------------------------10---------------10--------------|
D|7-7-7-7-7-7-7-7-8-8-8-8-8-8-8-8------10---10---10-----10---10---10-10-10-10|
A|5-5-5-5-5-5-5-5-8-8-8-8-8-8-8-8-------8---------8------8---------8-10-10-10|
E|----------------6-6-6-6-6-6-6-6--8-8----8----8----8-8----8----8-----8--8--8|
                                  ...    .    .    ...    .    .

Verse Cont'd:  Guitar 1
e|---------------------------------------------------------------------------|
B|---------------------------------------------------------------------------|
G|------------10-10-10-10-10-10-9-9-9-9-9-9----------------10-10/9-10--9-----|
D|7-5-4-8-7-5--x--x--x--x--x--x-x-x-x-x-x-x-8-7-5-8/10-8-7--x--x-x--x--x-----|
A|-------------8--8--8--8--8--8-7-7-7-7-7-7-----------------8--8/7--8--7-----|
E|---------------------------------------------------------------------------|

Verse Cont'd:  Guitar 1
e|---------------------------------------------------------------------------|
B|---------------------------------------------------------------------------|
G|5-5-5-5-5-5-10-----10-----10--10-----10-----10-10-10/9-10-9-5-5-5-5-5-5----|
D|x-x-x-x-x-x----7-7----7-7--------8-8----8-8-----x--x-x--x-x-x-x-x-x-x-x----|
A|3-3-3-3-3-3-------------------------------------8--8/7--8-7-3-3-3-3-3-3----|
E|---------------------------------------------------------------------------|
                PM.    ...        ...    ...

Verse Cont'd:  Guitar 1
e|---------------------------------------------------------------------------|
B|---------------------------------------------------------------------------|
G|10-----10-----10--10-----10-----10-10-10/9-10-9-5-5-5-5-5-5----------------|
D|---7-7----7-7--------8-8----8-8--x--x--x-x--x-x-x-x-x-x-x-x----------------|
A|---------------------------------8--8--8/7--8-7-3-3-3-3-3-3----------------|
E|---------------------------------------------------------------------------|
    PM.    ...        ...    ...

Chorus:  Guitar 1
e|---------------------------------------------------------------------------|
B|---------------------------------------------------------------------------|
G|3-3-3-3-3-3-3-3-5-5-5-5-5-5-5-5-7-7-7-7-7-7-7-7-2-2-2-2-2-2-2-2------------|
D|3-3-3-3-3-3-3-3-5-5-5-5-5-5-5-5-7-7-7-7-7-7-7-7-2-2-2-2-2-2-2-2------------|
A|1-1-1-1-1-1-1-1-3-3-3-3-3-3-3-3-5-5-5-5-5-5-5-5-0-0-0-0-0-0-0-0------------|
E|---------------------------------------------------------------------------|
 When I..........stars, they.....eyes............bright with....
 Tonight, yet....above me and....fly.............above me.......

Chorus Cont'd:  Guitar 1
e|---------------------------------------------------------------------------|
B|---------------------------------------------------------------------------|
G|3-3-3-3-3-3-3-3-5-5-5-5-5-5-5-5~-------------------------------------------|
D|3-3-3-3-3-3-3-3-5-5-5-5-5-5-5-5~-------------------------------------------|
A|1-1-1-1-1-1-1-1-3-3-3-3-3-3-3-3~-------------------------------------------|
E|---------------------------------------------------------------------------|
 be with.........with.

Repeat Intro:  Guitar 1  (2x)

Bridge:  Guitar 1  "To look at the mountains..."   (2x)
e|---------------------------------------------------------------------------|
B|---------------------------------------------------------------------------|
G|3-3-3-3-3-3-7-7-7-7-7-7-------------3-3-3-5-5-5-3-3-3-3-3-3-3-3-5-5-5-5-5-5|
D|3-3-3-3-3-3-7-7-7-7-7-7-7-7-7-7-7-7-3-3-3-5-5-5-3-3-3-3-3-3-3-3-5-5-5-5-5-5|
A|1-1-1-1-1-1-5-5-5-5-5-5-7-7-7-7-7-7-1-1-1-3-3-3-1-1-1-1-1-1-1-1-3-3-3-3-3-3|
E|------------------------5-5-5-5-5-5----------------------------------------|

Repeat Verse:  Guitar 1

Repeat Chorus:  Guitar 1

Repeat Intro:  Guitar 1  (2x)

Outro:  Guitar 1
e|---------------------------------------------------------------------------|
B|----------------------------5h6p5----------------------------5h6p5---------|
G|------------7-7-7-7-7-5-5-5------------------7-7-7-7-7-5-5-5---------------|
D|7-7x--8-8x--7-7-7-7-7-5-5-5-------7-7x--8-8x-7-7-7-7-7-5-5-5---------------|
A|7-7x--8-8x--5-5-5-5-5-3-3-3-------7-7x--8-8x-5-5-5-5-5-3-3-3---------------|
E|5-5x--6-6x------------------------5-5x--6-6x-------------------------------|

Outro Cont'd:  Guitar 1
e|---------------------------------------------------------------------------|
B|---------------------------------------------------------------------------|
G|----------------------7-7-7-7-7-7-5-5-5-5-5-5------------------------------|
D|7-7-7-7-7-8-8-8-8-8-8-7-7-7-7-7-7-5-5-5-5-5-5-7-7-7-7-7-8-8-8-8-8-8--------|
A|7-7-7-7-7-8-8-8-8-8-8-5-5-5-5-5-5-3-3-3-3-3-3-7-7-7-7-7-8-8-8-8-8-8--------|
E|5-5-5-5-5-6-6-6-6-6-6-------------------------5-5-5-5-5-6-6-6-6-6-6--------|

Outro Cont'd:  Guitar 1
e|---------------------------------------------------------------------------|
B|---------------------------------------------------------------------------|
G|7-7-7-7-7-7-5-5-5-5-5-5--10-10x--------------------------------------------|
D|7-7-7-7-7-7-5-5-5-5-5-5---x--x---------------------------------------------|
A|5-5-5-5-5-5-3-3-3-3-3-3---8--8x--------------------------------------------|
E|---------------------------------------------------------------------------|
[ Tab from: http://www.guitartabs.cc/tabs/r/rufio/above_me_tab_ver_3.html ]
GUITAR 2'S PARTS:
Intro:  Guitar 2  (2x)
e|---------------------------------------------------------------------------|
B|---------------------------------------------------------------------------|
G|--------------------7-7-7-7-7-5-5-5-5-5------------------------------------|
D|7-7-7-7-7-8-8-8-8-8-7-7-7-7-7-5-5-5-5-5------------------------------------|
A|7-7-7-7-7-8-8-8-8-8-5-5-5-5-5-3-3-3-3-3------------------------------------|
E|5-5-5-5-5-6-6-6-6-6--------------------------------------------------------|

Intro Cont'd:  Guitar 2  (2x)
e|---------------------------------------------------------------------------|
B|---------------------------------------------------------------------------|
G|---------------------------------------------------------------------------|
D|---------------------------------------------------------------------------|
A|----8-----7---8-----8-----7---8-------8----10----8---8---8---7---7---------|
E|5-5---5-5---5---6-6---6-6---6---10-10---10----10---8---8---8---8-----------|
 PM.   ...   .   ...   ...   .   .....   ..    ..   .   .   .   .

Intro Cont'd:  Guitar 2
e|---------------------------------------------------------------------------|
B|---------------------------------------------------------------------------|
G|10-10-10-12-12-12-14-------------------------------------------------------|
D|-x--x--x--x--x--x--x-------------------------------------------------------|
A|-8--8--8-10-10-10-12-10/12-10-8-10-8-7-8-7---------------------------------|
E|-------------------------------------------8-------------------------------|

Verse:  Guitar 2  "If I were to walk..."
e|---------------------------------------------------------------------------|
B|---------------------------------------------------------------------------|
G|14-14-14-14-14-14-14-14-10-10/9-10-14-14-14-15-14-10\---9-9-9-10-10-10-----|
D|-x--x--x--x--x--x--x--x--x--x-x--x--x--x--x--x--x--x----x-x-x--x--x--x-----|
A|12-12-12-12-12-12-12-12--8--8/7--8-12-12-12-13-12--8\---7-7-7--8--8--8-----|
E|---------------------------------------------------------------------------|

Verse Cont'd:  Guitar 2
e|---------------------------------------------------------------------------|
B|---------------------------------------------------------------------------|
G|12-12-10-9-14-14-14-14-14-14-14-14-10-10/9-10-14-14-14-15-14-10\-----------|
D|-x--x--x-x--x--x--x--x--x--x--x--x--x--x-x--x--x--x--x--x--x--x------------|
A|10-10--8-7-12-12-12-12-12-12-12-12--8--8/7--8-12-12-12-13-12--8\-----------|
E|---------------------------------------------------------------------------|

Verse Cont'd:  Guitar 2
e|---------------------------------------------------------------------------|
B|---------------------------------------------------------------------------|
G|9-9-9-10-10-10-12-12-10-9-------------10-10-10-10-10-10-9-9-9-9-9-9--------|
D|x-x-x--x--x--x--x--x--x-x-7-5-4-8-7-5--x--x--x--x--x--x-x-x-x-x-x-x--------|
A|7-7-7--8--8--8-10-10--8-7--------------8--8--8--8--8--8-7-7-7-7-7-7--------|
E|---------------------------------------------------------------------------|

Verse Cont'd:  Guitar 2
e|---------------------------------------------------------------------------|
B|---------------------------------------------------------------------------|
G|10-10/9-10--9-5-5-5-5-5-5-10-----10-----10--10-----10-----10-10-10/9-10-9--|
D|-x--x-x--x--x-x-x-x-x-x-x----7-7----7-7--------8-8----8-8-----x--x-x--x-x--|
A|-8--8/7--8--7-3-3-3-3-3-3-------------------------------------8--8/7--8-7--|
E|---------------------------------------------------------------------------|
                              PM.    ...        ...    ...

Verse Cont'd:  Guitar 2
e|---------------------------------------------------------------------------|
B|---------------------------------------------------------------------------|
G|5-5-5-5-5-5-10-----10-----10--10-----10-----10-10-10/9-10-9-5-5-5-5-5-5----|
D|x-x-x-x-x-x----7-7----7-7--------8-8----8-8-----x--x-x--x-x-x-x-x-x-x-x----|
A|3-3-3-3-3-3-------------------------------------8--8/7--8-7-3-3-3-3-3-3----|
E|---------------------------------------------------------------------------|
                PM.    ...        ...    ...

Chorus:  Guitar 2  "When I look at the stars..."  (Played lots of times)
e|---------------------------------------------------------------------------|
B|10----10-11-10----10----10-13-11-10----------------------------------------|
G|---10----------10----10----------------------------------------------------|
D|---------------------------------------------------------------------------|
A|---------------------------------------------------------------------------|
E|---------------------------------------------------------------------------|

Chorus Cont'd:  Guitar 2
e|---------------------------------------------------------------------------|
B|---------------------------------------------------------------------------|
G|---------------------------------------------------------------------------|
D|---------------------------------------------------------------------------|
A|----8-----7---8-----8-----7---8-------8----10----8---8---8---7---7---------|
E|5-5---5-5---5---6-6---6-6---6---10-10---10----10---8---8---8---8-----------|
 PM.   ...   .   ...   ...   .   .....   ..    ..   .   .   .   .

Bridge:  Guitar 2  "To look at the mountains..."  (2x)
e|---------------------------------------------------------------------------|
B|10-8----13-11-10--10-8-----------------------------------------------------|
G|-----10----------------10-10-10-10-12-12-12-10-10-10-10-10-10-9-9-9-9-9-9--|
D|---------------------------x--x--x--x--x--x--x--x--x--x--x--x-x-x-x-x-x-x--|
A|---------------------------8--8--8-10-10-10--8--8--8--8--8--8-7-7-7-7-7-7--|
E|---------------------------------------------------------------------------|

Repeat Verse:  Guitar 2

Repeat Chorus:  Guitar 2

Outro:  Guitar 2
e|---------------------------------------------------------------------------|
B|---------------------------------------------------------------------------|
G|------------7-7-7-7-7-5-5-5-5-5-5------------7-7-7-7-7-5-5-5-5-5-5---------|
D|7-7x--8-8x--7-7-7-7-7-5-5-5-5-5-5-7-7x--8-8x-7-7-7-7-7-5-5-5-5-5-5---------|
A|7-7x--8-8x--5-5-5-5-5-3-3-3-3-3-3-7-7x--8-8x-5-5-5-5-5-3-3-3-3-3-3---------|
E|5-5x--6-6x------------------------5-5x--6-6x-------------------------------|

Outro Cont'd:  Guitar 2
e|---------------------------------------------------------------------------|
B|---------------------------------------------------------------------------|
G|----------------------7-7-7-7-7-5-5-5-5-5-5-----------------------7-7-7-7-7|
D|7-7-7-7-7-8-8-8-8-8-8-7-7-7-7-7-5-5-5-5-5-5-7-7-7-7-7-8-8-8-8-8-8-7-7-7-7-7|
A|7-7-7-7-7-8-8-8-8-8-8-5-5-5-5-5-3-3-3-3-3-3-7-7-7-7-7-8-8-8-8-8-8-5-5-5-5-5|
E|5-5-5-5-5-6-6-6-6-6-6-----------------------5-5-5-5-5-6-6-6-6-6-6----------|

Outro Cont'd:  Guitar 2
e|---------------------------------------------------------------------------|
B|---------------------------------------------------------------------------|
G|5-5-5-5-5-5----------------------------------------------------------------|
D|5-5-5-5-5-5-3--3x----------------------------------------------------------|
A|3-3-3-3-3-3-3--3x----------------------------------------------------------|
E|------------1--1x----------------------------------------------------------|
Comments