Rufio - Above Me Chords & Tabs

 

Above Me Chords & Tabs

Rufio Chords & Tabs

Version: 1 Type: Bass Tab 0 ratings
1 star 2 stars 3 stars 4 stars 5 stars
comments

Above Me Bass Tab

-------------------------------------------------------------------------------
			     Above Me - Rufio
-------------------------------------------------------------------------------

By:finch12

I Did This Tab Because The Ohter One Are Like all The Same And Was Wrong,
And I Have The Fills At The End Of The Song.This Tab Should Be COrrect. 
This Is An Awesome SOng! CHeckout Other Rufio Songs!!!
   INTRO
G|---------------------------------------------------------------------------|
D|---------------------------------------------------------------------------|
A|-----------------5555555533333333----------------5555555533333333----------|
E|-5555555566666666----------------5555555566666666--------------------------|

G|---------------------------------------------------------------------------|
D|-------------------------------------------------7777777755555555----------|
A|-----------------5555555533333333------------------------------------------|
E|-5555555566666666----------------5555555566666666--------------------------|

G|---------------------------------------------------------------------------|
D|-----------------8/10-8-7-87575--------------------------------------------|
A|-------------------------------7-------------------------------------------|
E|-6666666666666666----------------------------------------------------------|

  VERSE
G|---------------------------------------------------------------------------|
D|----------------------------------33333333333333332222222222222222---------|
A|-55555555555555555---------------------------------------------------------|
E|------------------6666666666666666-----------------------------------------|

G|---------------------------------------------------------------------------|
D|----------------------------------33333333333333332222222222222222---------|
A|-55555555555555555---------------------------------------------------------|
E|------------------6666666666666666-----------------------------------------|

G|---------------------------------------------------------------------------|
D|-5/7-5-7-7/8-7-5----------------8-7-8-8/10-8-7-----------------------------|
A|----------------------------------------------88888888---------------------|
E|----------------6666666655555555----------------------88888888-------------|
[ Tab from: http://www.guitartabs.cc/tabs/r/rufio/above_me_btab.html ]
  PRE-CHORUS
G|---------------------------------------------------------------------------|
D|---------------------------------------------------------------------------|
A|-------------------------33333333--------------------------------/3--------|
E|-555555556666666600000000--------55555555666666660000000000000000----------|

  CHORUS
G|----------------------------------------------------------------------------------|
D|----------------------------------------------------------------------------------|
A|-000000000000000033333333333333335555555555555555---------------------------------|
E|-------------------------------------------------55555555555555556666666666666666-|

G|----------------------------------------------------------------------------|
D|----------------------------------------------------------------------------|
A|-/333333333333333335555555555555555---------------------------------333333~-|
E|-----------------------------------555555555555555556666666666666666--------| 

G|---------------------------------------------------------------------------|
D|---------------------------------------------------------------------------|
A|-----------------5555555533333333----------------555555553333333-----------|
E|-5555555566666666----------------5555555566666666--------------------------|

  BRIDGE
G|---------------------------------------------------------------------------|
D|-------------------------333-222--------------------------------------/3---|
A|---------5555555533333333-----------------------3333333333333333-3/5-3-----|
E|-66666666-----------------------6666666666666666---------------------------|

G|---------------------------------------------------------------------------|
D|-------------------------333-222-------------------------------------------|
A|---------5555555533333333-----------------------3333333333333x-------------|
E|-66666666-----------------------6666666666666666---------------------------|

  OUTRO (FILL AT END ARE FAST)
G|---------------------------------------------------------------------------|
D|---------------------------------------------------------------------------|
A|-------5-555-3-33-333-------5-5-555-3-33-333-------------------------------|
E|-55-66----------------55-66-----------------5-5-5556-66-666----------------|

G|----------7P0-5P0------------------------775-------------------------------|
D|---333/5/3-------7-5/3/0--------------------75-8/10-8-75-------------------|
A|-55-----------------------------------------------------8-8~~8/------------|
E|------------------------5-5-555-6-66-6-66----------------------------------|

 ANy Questions, Comments, Requests, Or Corrections, Please Feels Free To
 E-Mail Me At

     kclimb12@netscape.net  
===============================================================================


Comments