Rudiments - Wailing Paddle Chords & Tabs

 

Wailing Paddle Chords & Tabs

Rudiments Chords & Tabs

Version: 1 Type: Bass Tab 0 ratings
1 star 2 stars 3 stars 4 stars 5 stars
comments

Wailing Paddle Bass Tab

Song: Wailing Paddle
Band: Rudiments
Album: Pick it up! compolation
tabbed by: pezman

this bass line is cool and i love this song. if there is anything wrong
with it or if you know the part i dont know email me at pezman0014@aol.com

bass intro
G:---------------------------------------------------------------
D:-----2--------------2--------------------------------------------
A:-3------0-------3-----0--------------------------------------------
E:------------1--------------1-------------------------------------

10x
G:-----------------1-4----------------------/-----------------------
D:-----2-5---22------------0-1------------/-----------------------------
A:-33-------------------11------------01---/----------------------------
E:----------------------------------111-------/----------------------

4x
G:-----------------------------------------------------/----------
D:--------------2222222-7777777-3333333-/-----------------------
A:-3333333-----------------------------------------/---------------------
E:-------------------------------------------------------/--------

G:----not -----------------------------------------------------------
D:----------sure-----------------------------------------------------
A:-----------------on ----------------------------------------------
E:----------------------this -part----------------------------------------
[ Tab from: http://www.guitartabs.cc/tabs/r/rudiments/wailing_paddle_btab.html ]
8x
G:-----------------1-4----------------------/-----------------------
D:-----2-5---22------------0-1------------/-----------------------------
A:-33-------------------11------------01---/----------------------------
E:----------------------------------111-------/----------------------

4x
G:-----------------------------------------------------/----------
D:--------------2222222-7777777-3333333-/-----------------------
A:-3333333-----------------------------------------/---------------------
E:-------------------------------------------------------/--------

G:--not -------------------------------------------------------------
D:--------sure -------------------------------------------------------
A:----------------on -----------------------------------------------
E:----------------------this part-----------------------------------------

4x
G:-----------------1-4----------------------/-----------------------
D:-----2-5---22------------0-1------------/-----------------------------
A:-33-------------------11------------01---/----------------------------
E:----------------------------------111-------/----------------------

4x
G:-----------------------------------------------------/----------
D:--------------2-222222-7-777777-3-3-3-/-----------------------
A:-3-333333-----------------------------------------/---------------------
E:-------------------------------------------------------/--------

4x
G:-----------------1-4----------------------/-----------------------
D:-----2-5---22------------0-1------------/-----------------------------
A:-33-------------------11------------01---/----------------------------
E:----------------------------------111-------/----------------------

                                                    [Welcome to GeoCities!]

Comments