Rudimentary Peni - Nothing But A Nightmare Chords & Tabs

 

Nothing But A Nightmare Chords & Tabs

Rudimentary Peni Chords & Tabs

Version: 1 Type: Tab 0 ratings
1 star 2 stars 3 stars 4 stars 5 stars
comments

Nothing But A Nightmare Tab

TITLE  : Nothing But A Nightmare
ARTIST : Rudimentary Peni
ALBUM  : Death Church

TRANSCRIBED BY : David Jones
 
STANDARD TUNING
E|---
B|---
G|---
D|---
A|---
E|---
     
Bass Intro:
|-----------------------------------|
|-----------------------------------|  x2
|------------3-2-2-2----------------|
|----2-2-2-2---------3-3-3-3-3-3-3--|
[ Tab from: http://www.guitartabs.cc/tabs/r/rudimentary_peni/nothing_but_a_nightmare_tab.html ]
Guitar - Verse's:
|----------------------------------------|
|----------------------------------------|
|----------------------------------------|
|---4-4-4-4-/-9-9-9-9-\-5-5-5-5-5-5-5-5--|
|---4-4-4-4-/-9-9-9-9-\-5-5-5-5-5-5-5-5--|
|---2-2-2-2-/-7-7-7-7-\-3-3-3-3-3-3-3-3--|

I think there's also a guitar doing this in 
the background:

|-----------|
|-----------|
|----4------|
|--4---5----| x2
|-----------|
|-----------|


Guitar - Chorus:
|-------------------------------------------|
|-------------------------------------------|
|-------------------------------------------|
|--4-4-4-4-/-9-9-9-9-/-7-7-7-7-/-3-3-/-2-2--|
|--4-4-4-4-/-9-9-9-9-/-7-7-7-7-/-3-3-/-2-2--|
|--2-2-2-2-/-7-7-7-7-/-5-5-5-5-/-1-1-/-0-0--|



Fini.  I think that's it.

e-mail - ugly_kid_dave@hotmail.com
Comments