Rudimentary Peni - Nothing But A Nightmare Chords & Tabs

 

Nothing But A Nightmare Chords & Tabs

Rudimentary Peni Chords & Tabs

Version: 1 Type: Bass Tab 0 ratings
1 star 2 stars 3 stars 4 stars 5 stars
comments

Nothing But A Nightmare Bass Tab

Song:                 Nothing But a Nightmare
Band:                 Rudimentary Peni
Album:              Death Church 
tabbed by:          Mojo Chicken
[ Tab from: http://www.guitartabs.cc/tabs/r/rudimentary_peni/nothing_but_a_nightmare_btab.html ]
Verse                            10x
G:------------5-4-4-4------------------------------- 
D:--4-4-4-4-----------5-5-5-5--------------------- 
A:----------------------------------------------------
E:----------------------------------------------------

Chorus                          2x
G:------------5-4-4-4-2-2-2-2--------------------- 
D:--4-4-4-4---------------------3-2-2-2----------- 
A:----------------------------------------------------
E:----------------------------------------------------




Comments