Rudimentary Peni - Cloud Song Chords & Tabs

 

Cloud Song Chords & Tabs

Rudimentary Peni Chords & Tabs

Version: 2 Type: Bass Tab 0 ratings
1 star 2 stars 3 stars 4 stars 5 stars
comments

Cloud Song Bass Tab

Song:                 Cloud Song
Band:                 Rudimentary Peni
Album:              Death Church 
tabbed by:          Mojo Chicken

The whole song never strays out of a D-min. arpeggio
(D-F-G-D). Left-hand position remains the same…
[ Tab from: http://www.guitartabs.cc/tabs/r/rudimentary_peni/cloud_song_btab_ver_2.html ]
Intro
G:----------------------------------------------------
D:----------------7-7-------------------7------------  
A:-5-5-5-5-5-5------8-8-8-8-8-8-8--------------- 
E:----------------------------------------------------

G:----------------------------------------7----------- 
D:-----------------7-7---------7------7------------- 
A:--5-5-5-5-5-5------8-8-8----8-5----------------
E:----------------------------------------------------

(There's a break in the song: Bass comes back in
playing a D and then holding an F. Listen to it…)


Comments