Rudimentary Peni - Choices Of Evils Chords & Tabs

 

Choices Of Evils Chords & Tabs

Rudimentary Peni Chords & Tabs

Version: 1 Type: Bass Tab 0 ratings
1 star 2 stars 3 stars 4 stars 5 stars
comments

Choices Of Evils Bass Tab

   
this is my 1st time writing a tab for any song. so bear with me.

Verse 

e:--------------
a:--------------
d:--------------
g:-3-3-3-1-2-3-4

e:--------------
a:--------------
d:--------------
g:-3-3-3-1-2-3-4

e:--------------
a:--------------
d:--------------
g:-3-3-3-1-2-3-4
[ Tab from: http://www.guitartabs.cc/tabs/r/rudimentary_peni/choices_of_evils_btab.html ]
e:--------------
a:--------------
d:--------------
g:-3-3-3-1-2-3-4

Chorus

e:------------------------
a:------------------------
d:------------------------
g:-6-6-6-6-6-6-4-4-4-4-4-4

e:------------------------
a:------------------------
d:------------------------
g:-6-6-6-6-6-6-4-4-4-4-4-4




hope u guys like it cause i do
Comments