Rudimentary Peni - Blissful Myth Chords & Tabs

 

Blissful Myth Chords & Tabs

Rudimentary Peni Chords & Tabs

Version: 2 Type: Bass Tab 0 ratings
1 star 2 stars 3 stars 4 stars 5 stars
comments

Blissful Myth Bass Tab

Song:                 Blissful Myth
Band:                 Rudimentary Peni
Album:              Death Church 
tabbed by:          Mojo Chicken

Verse                            6x
G:--7-7-6-6-6-6-6-6-5-5-4-4-4-4-4-4----------- 
D:---------------------------------------------------- 
A:----------------------------------------------------
E:----------------------------------------------------

G:---------------------------------------------------- 
D:--5-5-4-4-4-4-4-4-3-3-2-2-2-2-2-2-----------
A:----------------------------------------------------
E:---------------------------------------------------- 
[ Tab from: http://www.guitartabs.cc/tabs/r/rudimentary_peni/blissful_myth_btab_ver_2.html ]
Chorus                          1x 
G:-~10-9-9-9-9-9-9-9---------------------------- 
D:------------------------9-------------------------- 
A:--------------------------------------------------- 
E:---------------------------0-0-0-0-0-0---------- 

G:--10-10-9-9-9-9-9-9-9------------------------- 
D:----------------------------9---------------------- 
A:---------------------------------------------------- 
E:-------------------------------0-0-0-0-0-0------- 

G:--10-10-9-9-9-9-9-9-9------------------------- 
D:----------------------------9---------------------- 
A:---------------------------------------------------- 
E:-------------------------------0-0-0-0-0-0------- 


G:--10-10-9-9-9-9-9-9-9-9-11-11-11-11-11--- 
D:---------------------------------------------------- 
A:---------------------------------------------------- 
E:----------------------------------------------------
 (repeat verse part again…)
Comments