Ruckus - Half Full Half Empty Chords & Tabs

 

Half Full Half Empty Chords & Tabs

Ruckus Chords & Tabs

Version: 1 Type: Tab 0 ratings
1 star 2 stars 3 stars 4 stars 5 stars
comments

Half Full Half Empty Tab

URL official band page: www.ruckusboys.com

Tabbed by Aubrie
any questions email punkrock4god@yahoo.com
listen to the song to figure out the stumming pattern, it's not that hard,
if I can do it, anyone can.

Standard tuning

(intro)
--------3-3-3-3-3-3/-5-5-5-5-5/7-7-3-3-3-3-3-3-3/5-5-5-3-3-3---
--------3-3-3-3-3-3/-5-5-5-5-5/7-7-3-3-3-3-3-3-3/5-5-5-3-3-3---
--------x-x----------------------------------------------------  (repeat)
--------2-2----------------------------------------------------
--------2-2----------------------------------------------------
----0-0--------------------------------------------------------


(verse)
--3-3-3-3-3-3-3-3-3-3-3-3-3-3-3--------------------------------
--3-3-3-3-3-3-3-3-3-3-3-3-3-3-3--------------------------------
----------------------0-0-0-0-0--------------------------------
--2-2-2-2-2-0-0-0-0-0-0-0-0-0-0-------------------------------- (repeat)
--2-2-2-2-2-0-0-0-0-0------------------------------------------
---------------------------------------------------------------
if everybody had to were a sign around their necks with just one word, I'd like
to think mine would say free and if you had to say the one, who loved you more
than anyone well then, you'd have to say that is was me

[ Tab from: http://www.guitartabs.cc/tabs/r/ruckus/half_full_half_empty_tab.html ]
(chorus)
--3-3-3-3-3-3-3-3-3-3-3-3-3-3-3-3-3-3-3-3-3-3-3-3-3/5-5-5-3-3-3--------
--3-3-3-3-3-3-3-3-3-3-3-3-3-3-3-3-3-3-3-3-3-3-3-3-3/5-5-5-3-3-3--------
--0-0-0-0-0-0-0-0-2-2-2-2-2-2-2-2-0-0-0-0-0-0-0-0----------------------
--0-0-0-0-0-0-0-0-0-0-0-0-0-0-0-0-2-2-2-2-2-2-2-2-----------------(play 3x)
--2-2-2-2-2-2-2-2-0-0-0-0-0-0-0-0-3-3-3-3-3-3-3-3----------------------
--3-3-3-3-3-3-3-3-2-2-2-2-2-2-2-2-0-0-0-0-0-0-0-0----------------------
One of these days, gonna wish the times your having now more like the times we used to
and one of these days, gonna wish someone would love you, the way that I still do, 
and I'm afraid, I'm still gonna be here, and you're still gonna be gone

--3-3-3-3-3-3-3-3-3-3-3-3-3-3-3-3-3-3-3-3-3-3-3-3-3-3
--3-3-3-3-3-3-3-3-3-3-3-3-3-3-3-3-3-3-3-3-3-3-3-3-3-3
--0-0-0-0-0-0-0-0-2-2-2-2-2-2-2-2-0-0-0-0-0-0-0-0-0-0
--0-0-0-0-0-0-0-0-0-0-0-0-0-0-0-0-2-2-2-2-2-2-2-2-2-2(play once)
--2-2-2-2-2-2-2-2-0-0-0-0-0-0-0-0-3-3-3-3-3-3-3-3-3-3
--3-3-3-3-3-3-3-3-2-2-2-2-2-2-2-2-0-0-0-0-0-0-0-0-0-0
and I'm afriad, I'm never gonna leave here, you have up and moved on

--3-3-3-3-3-3-3-3-3-3-3-3-3-3-3-3-3-3-3-3-3-3-3-3-3/5-5-5-3-3-3--------
--3-3-3-3-3-3-3-3-3-3-3-3-3-3-3-3-3-3-3-3-3-3-3-3-3/5-5-5-3-3-3--------
--0-0-0-0-0-0-0-0-2-2-2-2-2-2-2-2-0-0-0-0-0-0-0-0----------------------
--0-0-0-0-0-0-0-0-0-0-0-0-0-0-0-0-2-2-2-2-2-2-2-2---------------(repeat twice)
--2-2-2-2-2-2-2-2-0-0-0-0-0-0-0-0-3-3-3-3-3-3-3-3----------------------
--3-3-3-3-3-3-3-3-2-2-2-2-2-2-2-2-0-0-0-0-0-0-0-0----------------------
guess I should move on, I guess that I'm not the one, guess I should move on, I
guess that i'm not the one

(intro fade out)
Comments