Rubber Band - Crazy Chords & Tabs

 

Crazy Chords & Tabs

Rubber Band Chords & Tabs

Version: 1 Type: Tab 0 ratings
1 star 2 stars 3 stars 4 stars 5 stars
comments

Crazy Tab

intro
--------------             slide pick across top string 
--------------
--------------repeat4x's  
--------------
-------------3
-00-1-00-3-0--
-----------------
-----------------
-----------------
--5-5-5-5-5-5-5-5
--5-5-5-5-5-5-3-3
--3-3-5-5-3-3-3-3
[ Tab from: http://www.guitartabs.cc/tabs/r/rubber_band/crazy_tab.html ]
Comments