Royal Assassin - Straight Out Of The Eastside Chords & Tabs

 

Straight Out Of The Eastside Chords & Tabs

Royal Assassin Chords & Tabs

Version: 2 Type: Tab 0 ratings
1 star 2 stars 3 stars 4 stars 5 stars
comments

Straight Out Of The Eastside Tab

Band: Royal Assassin
Song: Straight Outta The Eastside
Bass Player: Wilgabeast
Tabbed by: Tom Wilga
Band Homepage: http://royalassassin.8k.com
Copy Right: 2000

Note: Most of you haven't heard this song, so if you do want
to hear it (which it is a good song) you can download it at
our home page.


Intro: (Crack Houses, prostitutes....
======
  I--------4x------------|I
E:-----------------------|
A:-----------------------|
D:-----------------------|
G:-7-7--5-5/7\3-33-3-55--|
B:-7-7--5-5/7\3-33-3-55--|
e:-5-5--3-3/5\1-11-1-33--|

Verse:
======
E:-----------------------|
A:-----------------------|
D:-----------------------|
G:----7\0----------------|
B:----7\0----------------|
e:----5\0----------------|

Do this at the beginning of every bar. Do this twice then do the intro twice and then go to the chorus.
[ Tab from: http://www.guitartabs.cc/tabs/r/royal_assassin/straight_out_of_the_eastside_tab_ver_2.html ]
Chorus:
======
  I---------------------2.5x--------------------------------------------|I
E:----------------------------------------------------------------------|
A:----------------------------------------------------------------------|
D:----------------------------------------------------------------------|
G:-7-7--9-9--11-11-11-11---7-7--9-9--12--11--11-11-11-------------------|
B:-7-7--9-9--11-11-11-11---7-7--9-9--12--11--11-11-11-------------------|
e:-5-5--7-7--9--9--9--9----5-5--7-7--10--9---9--9--9--------------------|

Bridge:
=======
E:----------------------------------------------|
A:----------------------------------------------|
D:------3-3-------------------------------------|
G:-5-5--3-3--3-3-3-3----------------------------|
B:-5-5--1-1--3-3-3-3----------------------------|
e:-3-3-------1-1-1-1----------------------------|


Order:
======

Intro 4x
Verse 2x
Intro 2x
Chorus 2.5x
Bridge 4x
Intro 2x
Verse 2x
Intro 2x
Chorus 2.5x
Bridge 4x
Comments