Roy Rules - Sex Is Great In Paradise Chords & Tabs

 

Sex Is Great In Paradise Chords & Tabs

Roy Rules Chords & Tabs

Version: 1 Type: Tab 0 ratings
1 star 2 stars 3 stars 4 stars 5 stars
comments

Sex Is Great In Paradise Tab

   
song:The Sex is Great in Paradises
as performed by:Roy Rules
written by Roy Kirby
album:the government doesn't want you to follow your dreams because that leads
to happiness (ep)




MAIN RIFF/CHORUS
 B5              F#5             B5              F#5             B5
G-4-4-4-4-4-4-4-4-----------------4-4-4-4-4-4-4-4-----------------4-4-4-4-4-
D-4-4-4-4-4-4-4-4-4-4-4-4-4-4-4-4-4-4-4-4-4-4-4-4-4-4-4-4-4-4-4-4-4-4-4-4-4-
A-2-2-2-2-2-2-2-2-4-4-4-4-4-4-4-4-2-2-2-2-2-2-2-2-4-4-4-4-4-4-4-4-2-2-2-2-2-
E-----------------2-2-2-2-2-2-2-2-----------------2-2-2-2-2-2-2-2-----------

       F#5             G#5             E5
G-4-4-4---------------------------------9-9-9-9-9-9-9-9-|
D-4-4-4-4-4-4-4-4-4-4-4-6-6-6-6-6-6-6-6-9-9-9-9-9-9-9-9-|
A-2-2-2-4-4-4-4-4-4-4-4-6-6-6-6-6-6-6-6-7-7-7-7-7-7-7-7-|
E-------2-2-2-2-2-2-2-2-4-4-4-4-4-4-4-4-----------------|
[ Tab from: http://www.guitartabs.cc/tabs/r/roy_rules/sex_is_great_in_paradise_tab.html ]
VERSE
 C#5   B5     F#5    C#5
G-6-----4-------------6-|
D-6-----4------4------6-|
A-4-----2------4------4-|
E--------------2--------|
this is just the chords, the strumming pattern is hard to count and is mostly
a feel thing.

GUITAR SOLO (literally, all other instriments dont play)
E------------------------------------------------------|
B------------------------------------------------------|
G--4fb-X-X-X-X-6fb-X-X-X-X-2h4p2-2h4p2-6fb(hold bend)--|
D------------------------------------------------------|
A------------------------------------------------------|
E------------------------------------------------------|

that's pretty much it. bass just plays root note of the chords. to get the 
right guitar sound you need a Gibson SG with a 490t ceramic magnet humbucker 
in the bridge (these are usually equipped in SG specials) and a old Hiwatt amp
with every single knob turned all the way up. then beat the living hell out of
your strings. or you could just use moderate dist. with a fuzz pedal and cheap
piece of crap humbucker guitar (squir fat strat) but that wouldn't be as cool 
as the beat up '93 SG special Roy (the bands guitar player/singer) used during 
recording.

Comments