Roy Rules - Left For Dead Chords & Tabs

 

Left For Dead Chords & Tabs

Roy Rules Chords & Tabs

Version: 1 Type: Tab 0 ratings
1 star 2 stars 3 stars 4 stars 5 stars
comments

Left For Dead Tab

"Left for Dead"
performed by Roy Rules
written by Roy Kirby
tune down 1/2 step (all notes and chords sound half step lower then written)
G1=GUITAR 1 G2=GUITAR 2 B=BASS BG=BOTH GUITARS
pm=palm mute  X=dead note /=slide off note


    INTRO/VERSE                     PRE-CHORUS
    (heavy dist.)                   
    G-2-----------2-------5-5-5-5--|---------------------7-------X-7-----------5----|
G1  D-2-----------2-------3-3-3-3--|-5-------X-3---------7-------X-7-----------5-5--|
    A-0-0-0-0-0-0-0-0-0-0----------|-5-------X-3---------5-------X-5-----------3-5--|
    E------------------------------|-3-------X-1---------------------------------3--|
       pm.........  pm....

     (heavy dist/w flanger)         (flanger off)
    G---------------------5-5-5-5--|---------------------7-------X-7-----------5----|
G2  D---------------------3-3-3-3--|-5-------X-3---------7-------X-7-----------5-5--|
    A------------------------------|-5-------X-3---------5-------X-5-----------3-5--|
    E------------------------------|-3-------X-1---------------------------------3--|


    G------------------------------|------------------------------------------------|
B   D---------------------3-3-3-3--|-----------3-3-3-3-3----------------------------|
    A------------------------------|---------------------5-5-5-5-5-5-5-5-5-5-5-3----|
    E-5-5-5-5-5-5-5-5-5-5----------|-3-3-3-3-3-----------------------------------5--|
[ Tab from: http://www.guitartabs.cc/tabs/r/roy_rules/left_for_dead_tab.html ]
    CHORUS
     (heavy dist. w/slight delay)
    G-15-15-15-15--17-17-17-17--19-19-19-19--17-17-17-17---|
G1  D------------------------------------------------------|
    A------------------------------------------------------|
    E------------------------------------------------------|


    G-2--2-2-2-2-2--------------5--5-5-5-5-5---------------|
G2  D-2--2-2-2-2-2-3--3-3-3-3-3-5--5-5-5-5-5-5--5-5-5-5-5--|
    A-0--0-0-0-0-0-3--3-3-3-3-3-3--3-3-3-3-3-5--5-5-5-5-5--|
    E--------------1--1-1-1-1-1--------------3--3-3-3-3-3--|
        pm........   pm........   pm........   pm.........
    G------------------------------------------------------|
B   D----------------------------------------5--5-5-5-5-5--|
    A-0--0-0-0-0-0--------------3--3-3-3-3-3---------------|
    E--------------1--1-1-1-1-1----------------------------|

     BRIDGE
     
    G-----X-X-X-X------X-X-X-X------X-X-X-X-----------------------|
BG  D-2---X-X-X-X--2---X-X-X-X--2---X-X-X-X-5-5-5-5--5--5--5--5---|
    A-2---X-X-X-X--2---X-X-X-X--2---X-X-X-X-3-3-3-3--5--5--5--5---|
    E-0---X-X-X-X--0---X-X-X-X--0---X-X-X-X----------3--3--3--3---|

    G---------------------------------------5-5-5-5-12-12-12-12/--|
B   D-------------------------------------------------------------|
    A-------------------------------------------------------------|
    E-0---0-0-0-0--0---0-0-0-0--0---0-0-0-0-----------------------|

    solo is played over the chorus, after G2 and B play the chorus 4x both 
    guitars play the below lick while bass plays the chorus 4X.
     
     DUAL LEAD LICK
     (heavy dist. w/flanger and wah wah)
    E--7-0--3-0--5-0--7-7-----------------|
    B-------------------------------------|
    G-------------------------------------| 
    

       amazing origional song by Roy Rules. there outta of MI and are very cool.
       Roy Kirby is probably the best lead guitar player I've seen in a long
      time. very cool leads and melodys.

    
    

Comments