Roy Rules - Feed The Kids Chords & Tabs

 

Feed The Kids Chords & Tabs

Roy Rules Chords & Tabs

Version: 2 Type: Tab 0 ratings
1 star 2 stars 3 stars 4 stars 5 stars
comments

Feed The Kids Tab

   
"Feed the Kids"
written by Roy Kirby

[ Tab from: http://www.guitartabs.cc/tabs/r/roy_rules/feed_the_kids_tab_ver_2.html ]
(ACOUSTIC)
 G                   D                   Em                  C
E-3-X-3-3-3-3-3-3-X-X---X-------------X-X-7-X-7-7-7-7-7-7-X-X---X-------------X-X--|
B-3-X-3-3-3-3-3-3-X-X-7-X-7-7-7-7-7-7-X-X-8-X-8-8-8-8-8-8-X-X-5-X-5-5-5-5-5-5-X-X--|
G-4-X-4-4-4-4-4-4-X-X-7-X-7-7-7-7-7-7-X-X-9-X-9-9-9-9-9-9-X-X-5-X-5-5-5-5-5-5-X-X--|
D-5-X-5-5-----5-5-X-X-7-X-7-7-7-7-7-7-X-X-9-X---9-----9-9-X-X-5-X-5-5-5-5-5-5-X-X--|
A-5-X---5-----5-5-X-X-5-X---5-----5-5-X-X-7-X---7-----7-7-X-X-3-X-3-3-----3-3-X-X--|
E-3-X---3-----3-3-X-X---X-------------X-X---X-------------------X-------------X-X--|

(ELECTRIC W/DIST.)
E---X-------------X-X---X-------------X-X---X-------------X-X---X-------------X-X--|
B---X-------------X-X---X-------------X-X-8-X-8-8-8-8-8-8-X-X---X-------------X-X--|
G-4-X-4-4-4-4-4-4-X-X-7-X-7-7-7-7-7-7-X-X-9-X-9-9-9-9-9-9-X-X-5-X-5-5-5-5-5-5-X-X--|
D-5-X-5-5-5-5-5-5-X-X-7-X-7-7-7-7-7-7-X-X-9-X-9-9-9-9-9-9-X-X-5-X-5-5-5-5-5-5-X-X--|
A-5-X-5-5-5-5-5-5-X-X-5-X-5-5-5-5-5-5-X-X-7-X-7-7-7-7-7-7-X-X-3-X-3-3-3-3-3-3-X-X--|
E-3-X-3-3-3-3-3-3-X-X---X-------------X-X---X-------------X-X---X-------------X-X--|

that's only only riff. electric plays some leads here and there.
Comments