Roy Rules - All Along The Watchtower Chords & Tabs

 

All Along The Watchtower Chords & Tabs

Roy Rules Chords & Tabs

Version: 1 Type: Tab 0 ratings
1 star 2 stars 3 stars 4 stars 5 stars
comments

All Along The Watchtower Tab

   
"All Along the Watchtower"
As performed by Roy Rules
written by Bob Dylan

tune down 1/2 step (low to high:Eb,Ab,Db,Gb,Bb,Eb) 
all notes and chords sound half step lower then written


INTRO/OUTRO
     Am       G      F       G
E-----0-0-0-0-3--3-3-1-1-1-1-3--3-3--|
B-----1-1-1-1-3--3-3-1-1-1-1-3--3-3--|
G-----2-2-2-2-0--0-0-2-2-2-2-0--0-0--|
D-----2-2-2-2-0--0-0-3-3-3-3-0--0-0--|
A-----0-0-0-0-2--2-2-3-3-3-3-2--2-2--|
E-------------3--3-3-1-1-1-1-3--3-3--|
[ Tab from: http://www.guitartabs.cc/tabs/r/roy_rules/all_along_the_watchtower_tab.html ]
G------------------------------------|
D-------------5--5-5-3-3-3-3-5--5-5--|
A------------------------------------|
E-17/-5-5-5-5------------------------|
  ***
(***=play first time only)

VERSE/CHORUS
E-0--0-0-------3-3-1--1-1-------3-3--|
B-1--1-1-X-X-X-3-3-1--1-1-X-X-X-3-3--|
G-2--2-2-X-X-X-0-0-2--2-2-X-X-X-0-0--|
D-2--2-2-X-X-X-0-0-3--3-3-X-X-X-0-0--|
A-0--0-0-X-X-X-2-2-3--3-3-X-X-X-2-2--|
E--------X-X-X-3-3-1--1-1-X-X-X-3-3--|

G------------------------------------|
D------------------3-3-3-3-3-3-3-5-5-|
A------------------------------------|
E-5-5-5-5-5-5--3-3-------------------|

the bass verse notes are right but the number of time you hit them may be 
wrong but it's a feel thing and is pretty easy to grasp.

INTRO 2X
VERSE/CHORUS (as many times as needed)
OUTRO 2X (end on Am)
Comments