Roxy Music - Tara Chords & Tabs

 

Tara Chords & Tabs

Roxy Music Chords & Tabs

Version: 1 Type: Tab 0 ratings
1 star 2 stars 3 stars 4 stars 5 stars
comments

Tara Tab

Saxophone transcribed for guitar

e-15-12-15/17--17-15-13-15--13-12h13p12p10h12p10p8---------|
B--------------------------------------------------5-5h6p3-|
G----------------------------------------------------------|
D----------------------------------------------------------|
A----------------------------------------------------------|
E----------------------------------------------------------|

e---------3---3h5p3-----5/3/5/8-5/8-10-7-12-5-13----------|
B-5-1-3h5---5---------------------------------------------|
G---------------------------------------------------------|
D---------------------------------------------------------|
A---------------------------------------------------------|
E---------------------------------------------------------|

e-13-12-10-12/17-12--10h12p10p8/15/10--8h10-7-8-3h5-------|
B---------------------------------------------------5/6---|
G---------------------------------------------------------|
D---------------------------------------------------------|
A---------------------------------------------------------|
E---------------------------------------------------------|

e----------------------------------------10p8h10-12p10h12-|
B-5/6/3-5/6/5/10-8-10--5/8/10/5--10p8h10------------------|
G---------------------------------------------------------|
D---------------------------------------------------------|
A---------------------------------------------------------|
E---------------------------------------------------------|
[ Tab from: http://www.guitartabs.cc/tabs/r/roxy_music/tara_tab.html ]
e-----17-15-----------------------------------------------|
B---x-------17p15h17-15p13--------------------------------|
G--x----------------------14-12------12h14p12-------------|
D-x-----------------------------12h14---------15p14p12h14-|
A---------------------------------------------------------|
E---------------------------------------------------------|

e----------------------------------12---------------------|
B---------------------13--15p13h15---15~15~15~------------|
G------12h14p12--12h14------------------------------------|
D-12h14---------------------------------------------------|
A---------------------------------------------------------|
E---------------------------------------------------------|

e------------15~------------------------------------------------|
B-15h17-17-15---------18-17-18--17-15-17--15-13-15--13-11-11-10-|
G---------------------------------------------------------------|
D---------------------------------------------------------------|
A---------------------------------------------------------------|
E---------------------------------------------------------------|

h- hammer on
p- pull off
/- slide
x- rake strings with pick

Sorry, the timing may not be very clear, but I hope it's not that
hard to synchronize.

This was deceptively hard to figure out, some parts may be slightly
lacking notes, or sound a tiny bit different to the record, I can't
figure out what Andy Mackay is playing on his sax. Any corrections
or feedback, positive or otherwise would be greatly appreciated. I
also apologise for some of the overly long slides, but I find a
lot of legato makes it sound more similar to the record.

Tabbed by Gilles Casey
Comments