Roxy Music - Same Old Scene Chords & Tabs

 

Same Old Scene Chords & Tabs

Roxy Music Chords & Tabs

Version: 1 Type: Bass Tab 0 ratings
1 star 2 stars 3 stars 4 stars 5 stars
comments

Same Old Scene Bass Tab

Song: Same Old Scene
Band: Roxy Music
Album: Flesh & Blood
Tab By: P Glenn
Tuning: EADG



Intro:


 |1   2   3   4   |1   2   3   4   |etc

G|----------------|------------4---|----------------|----------------|
D|----------------|----------------|----------------|----------------|
A|6--6--4-6-------|1-22222---------|6--6--4-6-------|1-22222-----2-4-|
E|----------------|----------------|----------------|----------------|

G|----------------|----------------|----------------|----------------|
D|----------------|----------------|----------------|----------------|
A|6--6--4-6-------|1-22222-----21--|------------6---|4-----------2-4-|
E|----------------|----------------|4--4--2-4-------|----------------|


Verse:

G|----------------|--------------4-|----------------|----------------|
D|----------------|----------------|----------------|----------------|
A|6--6--4-6-------|1-22222----12---|6--6--4-6-------|1-22222-----2-4-|
E|----------------|----------------|----------------|----------------|
[ Tab from: http://www.guitartabs.cc/tabs/r/roxy_music/same_old_scene_btab.html ]
G|----------------|----------------|----------------|----------------|
D|----------------|----------------|----------------|----------------|
A|6--6--4-6-------|1-22222-----21--|------------6---|4--4-1234---2-4-|
E|----------------|----------------|4--4--2-4-------|----------------|


Chorus:

G|----------------|----------4--4--|------3---3--3--|------4---4--4--|
D|----------------|----------------|----------------|----------------|
A|1-11----1-11--1-|2-22----2---2---|1-11----1---1---|2-22----2---2---|
E|----------------|----------------|----------------|----------------|

G|------3---3--3--|------4---4--4--|----------------|------6---6---6-|
D|----------------|----------------|----------------|----------------|
A|1-11----1-11--1-|2-22----2---2---|--------------6-|4--4----4---4---|
E|----------------|----------------|4--4--2-4---4---|----------------|


Bridge:

G|----------------|----------------|
D|----------------|----------------|
A|4--4-1234-------|4--4-1234-------|
E|----------------|----------------|
Comments