Roxy Music - Over You Chords & Tabs

 

Over You Chords & Tabs

Roxy Music Chords & Tabs

Version: 1 Type: Bass Tab 0 ratings
1 star 2 stars 3 stars 4 stars 5 stars
comments

Over You Bass Tab

Over You
Roxy Music
Bass Tab


Intro

|--------------------------------|
|-----------------5-5-5-7--7-7-7-|
|-5-5-5-5-5-5-5-5----------------|
|--------------------------------| x4

Verse

|--------------------------------|
|-----------------5-5-5-7--7-7-7-|
|-5-5-5-5-5-5-5-5----------------|
|--------------------------------| x8

Fill

|--------------------------------|
|-----7-------------------7------|
|-5-5---7-------------5-5---7----|
|--------------------------------|

Repeat Verse

Fill 2

|-------------------------------------------------------------|
|-12-----------12-----------------------------5-5-5-7--7-7-7--|
|---------------------------/5-5-5-5-/5-5-5-5-----------------|
|-------------------------------------------------------------|

|-------------------------------------------------------------------|
|-------------------5-5-5-7--7-7-7----------------------------------|
|-/5-5-5-5-/5-5-5-5-------------------------------------------------|
|-----------------------------------5-5-5-5-5-5-5-5-5-5-5-5-5-5-5-3-|
[ Tab from: http://www.guitartabs.cc/tabs/r/roxy_music/over_you_btab.html ]
|-----------------------------------------------------------------|
|-----------------------------------------------------------------|
|-----------------------------------------------------------------|
|-5-5-5-5-5-5-5-5-5-5-5-5-5-5-5-3-5-5-5-5-5-5-5-3-5-5-5-5-5-5-5-5-|

Repeat Verse

Ending

|------------------------------------------|
|------------------------------------------|
|-2--/5------------------------------------|
|--------------------7--\3---------3--x-3--|

|------------------------------------------------------|
|------------------------------------------------------|
|-2--/5------------5-----------------------------------|
|---------------------7--\3---(3-3-3)--(3-3-3)--(3-3)--|

|---------------------------------------------------|
|---------------------------------------------------|
|-2--/5------------------------------------------2--|
|---------------10--x-10----\3---3-3-3--3-3-3--3----|

|-----------------------------------------|
|-----------------------------------------|
|-3--5------------------------------------|
|-------------------7--\3---------3--x-3--|

|-----------------------------------------------|
|-----------------------------------------------|
|-2--/5-----------------------------------------|
|---------------10--x-10-7---\3---------3--x-3--| Repeat last bar til end
Comments