Roxy Music - For Your Pleasure Chords & Tabs

 

For Your Pleasure Chords & Tabs

Roxy Music Chords & Tabs

Version: 1 Type: Chords 0 ratings
1 star 2 stars 3 stars 4 stars 5 stars
comments

For Your Pleasure Chords

   
-------------------------------------------------------------------------------
			     FOR YOUR PLEASURE - Roxy Music
-------------------------------------------------------------------------------
Tabbed by: openless

Tuning: STANDARD

         F
For your pleasure
       C
In our present state
     Eb
Part false part true
     Bb
Like anything
   C          G
We present ourselves


    F            C
The words we use tumble
    Eb        Bb
All over your shoulder
       C        G
Gravel hard and loose

      F         C
There all night lying
          Eb         Bb
With your dark horse hiding
  C       G
Abhorring such extremes

***SOLO***

               A
You're rubbing shoulders
         C        G
With the stars at night

Shining so bright

        A
Getting older
           C       G
But you'll wake up soon

And fight
[ Tab from: http://www.guitartabs.cc/tabs/r/roxy_music/for_your_pleasure_crd.html ]
       A
In the morning
           C       G
Things you worried about

Last night...

          A
Will seem lighter
  C       
I hope things
     G
Will turn out right


(acapella)

Old man

Through every step a change

You watch me walk away


A
Tara
G
Tara
A
Tara
G
Tara...

And so on, with lots of wacky keyboards and effects.

***SOLO***
lots of reverb
e|-----------------------------------|
B|-----------------------------------|
G|------------------------------0----|
D|-3-3-3-2------1~-1p0--------2------|
A|---------3------------1---3--------|
E|--------------------------------3--|

e|-----------------------------------|
B|-----------------------------------|
G|------------------------------0----|
D|-3-3-3-2------1~-1p0--------2---0--|
A|---------3------------1---3--------|
E|-----------------------------------|


| /  slide up
| \  slide down
| h  hammer-on
| p  pull-off
| ~  vibrato
| +  harmonic
| x  Mute note
===============================================================================
Comments