Roxy Music - Avalon Chords & Tabs

 

Avalon Chords & Tabs

Roxy Music Chords & Tabs

Version: 1 Type: Tab 0 ratings
1 star 2 stars 3 stars 4 stars 5 stars
comments

Avalon Tab


           BY JOSH KATSIKIS
this is my third tab, second whole song tab(the first is crimson and clover tommy
james and shondells) this sounds perfect to me enjoy.

|-----------|---------|-2-|---------|-----------|---------|-2-|
|-----------|---------|-2-|---6-6---|-----------|---------|-2-|
|-----------|---6-6---|-2-|-3-----2-|-----------|---6-6---|-2-|
|-----2-2---|-3-----2-|---|---------|-----2-2---|-3-----2-|---|
|-3-3-----1-|---------|---|---------|-3-3-----1-|---------|---|
|-----------|---------|---|---------|-----------|---------|---|

|---------|-----------|---------|-2-|---------|-----------|---------|-2-|
|---6-6---|-5-6-6/8-6-|---------|-2-|---6-6---|-----------|---------|-2-|
|-3-----2-|-----------|---6-6---|-2-|-3-----2-|-----------|---6-6---|-2-|
|---------|-----------|-3-----2-|---|---------|-----2-2---|-3-----2-|---|
|---------|-----------|---------|---|---------|-3-3-----1-|---------|---|
|---------|-----------|---------|---|---------|-----------|---------|---|
chorus
|-5-------4-|
|-6-------5-|
|-7-------6-|after the word avalon
|-----------|play this again
|-----------|
|-----------|

|-5---5-|---------|-2-|---------|-----------|---------|-2-|
|-5---5-|---------|-2-|---6-6---|-----------|---------|-2-|
|-6---6-|---6-6---|-2-|-3-----2-|-----------|---6-6---|-2-|
|-------|-3-----2-|---|---------|-----2-2---|-3-----2-|---|
|-------|---------|---|---------|-3-3-----1-|---------|---|
|-------|---------|---|---------|-----------|---------|---|
[ Tab from: http://www.guitartabs.cc/tabs/r/roxy_music/avalon_tab.html ]
|---------|-2-h-3--2-|---------|-2-|    |-----------|---------|
|---6-6---|-2-h-3--2-|---------|-2-|    |-----------|---------|
|-3-----2-|-2-h-5--2-|---6-6---|-2-|rest|-----------|---6-6---|rest
|---------|----------|-3-----2-|---|    |-----2-2---|-3-----2-|
|---------|----------|---------|---|    |-3-3-----1-|---------|
|---------|----------|---------|---|    |-----------|---------|

|-5--------4-|
|-6--------5-|
|-7--------6-|2 times
|------------|
|------------|
|------------|
solo
|-------------------------------------| |-------|         |----------------|
|---------10--------------------------| |-12-12-|         |-12-11-10-------|
|-9-10-11----11--11--11/17--17/14--14-| |-12-12-|two times|-12-11-10-11h12-|
|-------------------------------------| |-12-12-|         |-12-11-10-------|
|-------------------------------------| |-------|         |----------------|
|-------------------------------------| |-------|         |----------------|

|-----------|---------|-2-|---------|-----------|---------|-2-|
|-----------|---------|-2-|---6-6---|-----------|---------|-2-|
|-----------|---6-6---|-2-|-3-----2-|-----------|---6-6---|-2-|
|-----2-2---|-3-----2-|---|---------|-----2-2---|-3-----2-|---|
|-3-3-----1-|---------|---|---------|-3-3-----1-|---------|---|
|-----------|---------|---|---------|-----------|---------|---|

|--------------------------------|-------------------------------------|
|--------------------------------|---------10--------------------------|
|--------------------------------|-9-10-11----11--11--11/17--17/14--14-|
|-7h9p7-7-8-9-10-11--10-11-11-11-|-------------------------------------|
|--------------------------------|-------------------------------------|
|--------------------------------|-------------------------------------|

|-----------|---------|-2-|
|-----------|---------|-2-|
|-----------|---6-6---|-2-|
|-----2-2---|-3-----2-|---|
|-3-3-----1-|---------|---|
|-----------|---------|---|

|---------|-----------|---------|-2-|
|---6-6---|-----------|---------|-2-|
|-3-----2-|-----------|---6-6---|-2-| keep playing this till
|---------|-----2-2---|-3-----2-|---| the song is over
|---------|-3-3-----1-|---------|---|
|---------|-----------|---------|---|
Comments