Roxie77 - Bustin Out Chords & Tabs

 

Bustin Out Chords & Tabs

Roxie77 Chords & Tabs

Version: 1 Type: Tab 0 ratings
1 star 2 stars 3 stars 4 stars 5 stars
comments

Bustin Out Tab

   
~ =vibrato 
h =hammer-on 
p =pull-off 
. =palm mute 
x =fret hand muting 
()=ghost note 
PH=pinch harmonic 
H=natural harmonic 
TR=trill 
/ =slide up 
\ =slide down 
b =bend 
br=bend & release 
ps=pick scrape 

All guitars tuned down 1/2 step to Eb 


 INTRO: 
  Guitar 1 
|T----------------------------------------------------------------| 
|A----------------------------------------------------------------| 
|B-----0------0--------0------0--------0------0--------0------0---| 
|----0------3---3----0------3---3----0------3---3----0------3---3-| 
|-----------------------------------------------------------------| 
|--3-----1---------3-----1---------3-----1---------3-----1--------| 
|                                                                 | 
|                                                                 | 
| Guitar 2                        h     h                         | 
|-----------------------------------------------------------------| 
|--------------------------------(5)~~----------------------------| 
|--------------------------------------(5)~~----------------------| 
|-----------------------------------------------------------------| 
|-----------------------------------------------------------------| 
|-----------------------------------------------------------------| 


 VERSE 1: 
T-----------------------------------------------------------------| 
A-----------------------------------------------------------------| 
B------0------0--------0------0--------0------0--------0------0---| 
-----0------3---3----0------3---3----0------3---3----0------3---3-| 
------------------------------------------------------------------| 
---3-----1---------3-----1---------3-----1---------3-----1--------| 
   I can see right through you 

  
T-----------------------------------------------------------------| 
A-----------------------------------------------------------------| 
B------0------0--------0------0--------0------0--------0------0---| 
-----0------3---3----0------3---3----0------3---3----0------3---3-| 
------------------------------------------------------------------| 
---3-----1---------3-----1---------3-----1---------3-----1--------| 
   See inside your soul 

  
T-----------------------------------------------------------------| 
A-----------------------------------------------------------------| 
B------0------0--------0------0--------0------0--------0------0---| 
-----0------3---3----0------3---3----0------3---3----0------3---3-| 
------------------------------------------------------------------| 
---3-----1---------3-----1---------3-----1---------3-----1--------| 
   You may not believe me 


T-----------------------------------------------------------------| 
A-----------------------------------------------------------------| 
B------0------0--------0------0--------0------0--------0------0---| 
-----0------3---3----0------3---3----0------3---3----0------3---3-| 
------------------------------------------------------------------| 
---3-----1---------3-----1---------3-----1---------3-----1--------| 
   But we're the second    coming    of rock n roll 


T-----------------------------------------------------------------| 
A-----------------------------------------------------------------| 
B------0------0--------0------0--------0------0--------0------0---| 
-----0------3---3----0------3---3----0------3---3----0------3---3-| 
------------------------------------------------------------------| 
---3-----1---------3-----1---------3-----1---------3-----1--------| 
   the second coming   of   rock n roll 



T-----------------------------------------------------------------| 
A-----------------------------------------------------------------| 
B------0------0--------0------0--------0------0--------0------0---| 
-----0------3---3----0------3---3----0------3---3----0------3---3-| 
------------------------------------------------------------------| 
---3-----1---------3-----1---------3-----1---------3-----1--------| 



 VERSE 2: 
T-----------------------------------------------------------------| 
A-----------------------------------------------------------------| 
B------0------0--------0------0--------0------0--------0------0---| 
-----0------3---3----0------3---3----0------3---3----0------3---3-| 
------------------------------------------------------------------| 
---3-----1---------3-----1---------3-----1---------3-----1--------| 
   Got no lines to fool you        Can only speak my truth 



T-----------------------------------------------------------------| 
A-----------------------------------------------------------------| 
B------0------0--------0------0--------0------0--------0------0---| 
-----0------3---3----0------3---3----0------3---3----0------3---3-| 
------------------------------------------------------------------| 
---3-----1---------3-----1---------3-----1---------3-----1--------| 
   Why is time so precious?        Wasted on the youth 



T-----------------------------------------------------------------| 
A-----------------------------------------------------------------| 
B------0------0--------0------0--------0------0--------0------0---| 
-----0------3---3----0------3---3----0------3---3----0------3---3-| 
------------------------------------------------------------------| 
---3-----1---------3-----1---------3-----1---------3-----1--------| 
   You're all wasted            You're all wasted 




 PRE-CHORUS: 
T-------------------------3--3---------2--2-----| 
A-------------------------3--3---------3--3-----| 
B-------------------------0--0---------2--2-----| 
---3--3-------------------0--0---------0--0-----| 
---1--1-------3--3--------2--2------------------| 
--------------1--1--------3--3------------------| 
   You're apathetic blank stare don't phase me 


T-------------------------3--3---------2--2-----| 
A-------------------------3--3---------3--3-----| 
B-------------------------0--0---------2--2-----| 
---3--3-------------------0--0---------0--0-----| 
---1--1-------3--3--------2--2------------------| 
--------------1--1--------3--3------------------| 
   Don't blame me because the world got lazy 


T-------------------------3--3---------2--2-----| 
A-------------------------3--3---------3--3-----| 
B-------------------------0--0---------2--2-----| 
---3--3-------------------0--0---------0--0-----| 
---1--1-------3--3--------2--2------------------| 
--------------1--1--------3--3------------------| 
   Show me karate and I'll show you Krazy 


T---------------------3--3----------------| 
A---------------------3--3----------------| 
B---------------------0--0----------------| 
---3--3---------------0--0------10---10---| 
---1--1-------3--3----2--2------8--\-7----| 
--------------1--1----3--3----------------| 
   I'm riding on the Red eye 


T---------------------3--3----------------| 
A---------------------3--3----------------| 
B---------------------0--0----------------| 
---(10)~~-------------0--0------10---10---| 
---(7)~~~-------------2--2------8--\-7----| 
----------------------3--3----------------| 
   I'm driving on the White line 


T---------------------3--3----------------| 
A---------------------3--3----------------| 
B---------------------0--0----------------| 
---(10)~~-------------0--0------10---10---| 
---(7)~~~-------------2--2------8--\-7----| 
----------------------3--3----------------| 
   I'm staring at a Blue sky 


T---------------------3--3-------------------------| 
A---------------------3--3-------------------------| 
B---------------------0--0-------------------------| 
---(10)~~-------------0--0------10~---3------------| 
---(7)~~~-------------2--2------8~~---1---3---5~~--| 
----------------------3--3----------------1---3~~--| 
                I'm Bustin' Out 


[ Tab from: http://www.guitartabs.cc/tabs/r/roxie77/bustin_out_tab.html ]
T-----------------------------------------------------------------| 
A-----------------------------------------------------------------| 
B------0------0--------0------0--------0------0--------0------0---| 
-----0------3---3----0------3---3----0------3---3----0------3---3-| 
------------------------------------------------------------------| 
---3-----1---------3-----1---------3-----1---------3-----1--------| 


 VERSE 3: 
T-----------------------------------------------------------------| 
A-----------------------------------------------------------------| 
B------0------0--------0------0--------0------0--------0------0---| 
-----0------3---3----0------3---3----0------3---3----0------3---3-| 
------------------------------------------------------------------| 
---3-----1---------3-----1---------3-----1---------3-----1--------| 
   What's with all the retro 


T-----------------------------------------------------------------| 
A-----------------------------------------------------------------| 
B------0------0--------0------0--------0------0--------0------0---| 
-----0------3---3----0------3---3----0------3---3----0------3---3-| 
------------------------------------------------------------------| 
---3-----1---------3-----1---------3-----1---------3-----1--------| 
   Does anybody know? 


T-----------------------------------------------------------------| 
A-----------------------------------------------------------------| 
B------0------0--------0------0--------0------0--------0------0---| 
-----0------3---3----0------3---3----0------3---3----0------3---3-| 
------------------------------------------------------------------| 
---3-----1---------3-----1---------3-----1---------3-----1--------| 
I came out West to twist some necks 
                    Not be a dancing monkey in your corporate show 


T-----------------------------------------------------------------| 
A-----------------------------------------------------------------| 
B------0------0--------0------0--------0------0--------0------0---| 
-----0------3---3----0------3---3----0------3---3----0------3---3-| 
------------------------------------------------------------------| 
---3-----1---------3-----1---------3-----1---------3-----1--------| 
                                   Do your corporate blow... 





 PRE-CHORUS: 
T-------------------------3--3---------2--2-----| 
A-------------------------3--3---------3--3-----| 
B-------------------------0--0---------2--2-----| 
---3--3-------------------0--0---------0--0-----| 
---1--1-------3--3--------2--2------------------| 
--------------1--1--------3--3------------------| 
   You're apathetic blank stare don't phase me 


T-------------------------3--3---------2--2-----| 
A-------------------------3--3---------3--3-----| 
B-------------------------0--0---------2--2-----| 
---3--3-------------------0--0---------0--0-----| 
---1--1-------3--3--------2--2------------------| 
--------------1--1--------3--3------------------| 
   Don't blame me because the world got lazy 


T-------------------------3--3---------2--2-----| 
A-------------------------3--3---------3--3-----| 
B-------------------------0--0---------2--2-----| 
---3--3-------------------0--0---------0--0-----| 
---1--1-------3--3--------2--2------------------| 
--------------1--1--------3--3------------------| 
   Show me karate and I'll show you Krazy 


T---------------------3--3----------------| 
A---------------------3--3----------------| 
B---------------------0--0----------------| 
---3--3---------------0--0------10---10---| 
---1--1-------3--3----2--2------8--\-7----| 
--------------1--1----3--3----------------| 
   I'm riding on the Red eye 


T---------------------3--3----------------| 
A---------------------3--3----------------| 
B---------------------0--0----------------| 
---(10)~~-------------0--0------10---10---| 
---(7)~~~-------------2--2------8--\-7----| 
----------------------3--3----------------| 
   I'm driving on the White line 


T---------------------3--3----------------| 
A---------------------3--3----------------| 
B---------------------0--0----------------| 
---(10)~~-------------0--0------10---10---| 
---(7)~~~-------------2--2------8--\-7----| 
----------------------3--3----------------| 
   I'm staring at a Blue sky 


T---------------------3--3-------------------| 
A---------------------3--3-------------------| 
B---------------------0--0-------------------| 
---(10)~~-------------0--0------10~---3------| 
---(7)~~~-------------2--2------8~~---1---3--| 
----------------------3--3----------------1--| 
                I'm Bustin' Out 



 PRE-CHORUS: 
T-------------------------3--3---------2--2-----| 
A-------------------------3--3---------3--3-----| 
B-------------------------0--0---------2--2-----| 
---3--3-------------------0--0---------0--0-----| 
---1--1-------3--3--------2--2------------------| 
--------------1--1--------3--3------------------| 
   You're apathetic blank stare don't phase me 


T-------------------------3--3---------2--2-----| 
A-------------------------3--3---------3--3-----| 
B-------------------------0--0---------2--2-----| 
---3--3-------------------0--0---------0--0-----| 
---1--1-------3--3--------2--2------------------| 
--------------1--1--------3--3------------------| 
   Don't blame me because the world got lazy 


T-------------------------3--3---------2--2-----| 
A-------------------------3--3---------3--3-----| 
B-------------------------0--0---------2--2-----| 
---3--3-------------------0--0---------0--0-----| 
---1--1-------3--3--------2--2------------------| 
--------------1--1--------3--3------------------| 
   Show me karate and I'll show you Krazy 


T---------------------3--3----------------| 
A---------------------3--3----------------| 
B---------------------0--0----------------| 
---3--3---------------0--0------10---10---| 
---1--1-------3--3----2--2------8--\-7----| 
--------------1--1----3--3----------------| 
   I'm riding on the Red eye 


T---------------------3--3----------------| 
A---------------------3--3----------------| 
B---------------------0--0----------------| 
---(10)~~-------------0--0------10---10---| 
---(7)~~~-------------2--2------8--\-7----| 
----------------------3--3----------------| 
   I'm driving on the White line 


T---------------------3--3----------------| 
A---------------------3--3----------------| 
B---------------------0--0----------------| 
---(10)~~-------------0--0------10---10---| 
---(7)~~~-------------2--2------8--\-7----| 
----------------------3--3----------------| 
   I'm staring at a Blue sky 


T---------------------3--3-------------------| 
A---------------------3--3-------------------| 
B---------------------0--0-------------------| 
---(10)~~-------------0--0------10~---3------| 
---(7)~~~-------------2--2------8~~---1---3--| 
----------------------3--3----------------1--| 
                I'm Bustin' Out 


T--------3--3-------------------| 
A--------3--3-------------------| 
B--------0--0-------------------| 
---------0--0------10~---3------| 
---------2--2------8~~---1---3--| 
---------3--3----------------1--| 
   I'm Bustin' Out 


T--------3--3-------------------| 
A--------3--3-------------------| 
B--------0--0-------------------| 
---------0--0------10~---3------| 
---------2--2------8~~---1---3--| 
---------3--3----------------1--| 
   I'm Bustin' Out 


T--------3--3-------------------| 
A--------3--3-------------------| 
B--------0--0-------------------| 
---------0--0------10~---3------| 
---------2--2------8~~---1---3--| 
---------3--3----------------1--| 
   I'm Bustin' Out 



T--------3--3-------------------| 
A--------3--3-------------------| 
B--------0--0-------------------| 
---------0--0------10~---3------| 
---------2--2------8~~---1---3--| 
---------3--3----------------1--| 
   I'm Bustin' Out 



T---------------------------------------------------| 
A---------------------------------------------------| 
B---------------------------------------------------| 
----------------------------------------------------| 
---5-5-5-5-5-5-5-5-5-5-5-5-5-5-5-5-5-5-5-5-5-5-5-5--| 
---3-3-3-3-3-3-3-3-3-3-3-3-3-3-3-3-3-3-3-3-3-3-3-3--| 
                                         Suffragette
Comments