Roxette - We Like To Party Chords & Tabs

 

We Like To Party Chords & Tabs

Roxette Chords & Tabs

Version: 2 Type: Tab 0 ratings
1 star 2 stars 3 stars 4 stars 5 stars
comments

We Like To Party Tab

   
We like to Party
ROXETTE  -  Tourism  (1990)

INTRO:
e-|----------------------------------------------------|
B-|----------------------------------------------------|
G-|----------------------------------------------------|
D-|----------------------------------------------------|
A-|--------------------5/7-7vvvvvv--7/9\7\5vvvvvvvv----|
E-|--/0vvvvvvvvvvv-------------------------------------|

e-|----------------------------------------|
B-|----------------------------------------|
G-|----------------------------------------|
D-|----------------------------------------|
A-|-----2/5-5vvvvvvv-----------------------|
E-|---3-----------------/0\/vvvvvvvvvvv----|

e-|--------------------------------------------------------------------|
B-|--------------------------------------------------------------------|
G-|--------------------------------------------------------------------|
D-|--------------------------------------------------------------------|
A-|---5/7-7vvvv---7/9\7\5vvvv------2/5-(3)>5\-0vvvvvv------------------|
E-|-----------------------------3-----------------------/0vvvvvvvvvv\--|

e-|--------------------------------------------------------------|
B-|--------------------------------------------------------------|
G-|--------------------------------------------------------------|
D-|--------------------------------------------------------------|
A-|--5/7-7vvvvvvvv--7/9\7\5vvvvv-------2/5-5vvvvv--5/7-7vvvvvvv--|
E-|--------------------------------3-----------------------------|

e-|------------------------------------------------------------------------|
B-|------------------------------------------------------------------------|
G-|----------------------------------------------------------"9"\\\/\\-----|
D-|------------------------------------------------------------------------|
A-|--7/9\7\5vvvvvvv--------2/5(3)>5--5vvvvvvvvvv---------------------------|
E-|-------------------3----------------------------/0vvvvvvvvvvvvvvvvvvvvv-|

e-|-------------------------|
B-|-------------------------|
G-|-------------------------|
D-|-------------------------|
A-|-------------------------|
E-|--///////0vvvvvvvvv------|

e-|--------------------------------------|
B-|--------------------------------------|
G-|---------------------------7----------|
D-|---0\----------------------7----------|
A-|---0\----------------------5----------|
E-|--------------------------------------|
		|                  |
---------"12">("10)---------------------------------------------------------|
---------------/3>(1)----"12"\"7"/"12"-----------------------  <- this is 2-|
---------------/2>(0)----"12"\"7"/"12"--------------------------------------|      guitars. You
---------------/0>(-2)------------------------------------------------------|      can probably
----------------------------------------------------------------------------|      figure out
-------------------------------------------3/6--0vvvvvvvv\------------------|      the arangment

--------------------------------------------|
--------15--15>(17)======>15-------    <----| 2 guitars, same as above. The bend
-------------7------------------------------|        is gradually released.
-------------7------------------------------|
-------------5------------------------------|
--------------------------------------------|

Verse 1:

Em
The sweet smell of a great party lies over the land
D/E
Plumes of smoke rise and merge into the stoned looking sky
C/E
A woman lies and dreams of green fields and river
   Em
But awakens to a morning with no reason for awaken

Fill 1
               D/E
---------------------------|
----0-------7------    <---| sustain into the D/E chord.
------------7--------------|
------------7--------------|
---------------------------|
---------------------------|

Em
She's haunted by the memory of a lost paradise
------------------|
--7---------------|
----7-----7vvvvv--|
-------9----------|
------------------|
------------------|
D/E
In her youth or her dreams she can't be precise
C/E
She's chained forever to a world that is departed
   Em
It's not enough, it's not enough

Bridge:
One word, one soul.
Time pass, river roll.

--------------------------------------|
--------------------------------------|
-----------------------------------4--|
--5------5--7------5--------5------4--|
--5------5--7------5--------5------2--|
--3------3--5------3--------7---------|

-----------------------------2-------------|
-------5---------------------3-------------|    <- swell in w/ volume control on
-------6---------------------4-------------|       all simile.
-------------------------------------------|
-------------------------------------------|
-------------------------------------------|

------/17vvvv---------------------2--/17vvvvv------|
---5------------------------------3----------------|    <- two guitars again!
---6------------------------------4----------------|
---------------------------------------------------|
---------------------------------------------------|
---------------------------------------------------|

-----/17vvvvvvv---------------2--/12vvvvvvvv---------------|
------5-----------------------3----------------------------|        <- three guitars!
------6-----------------------4----------------------------|
-------------"7">("5")>"7"-------\/-\/-\/------------------|        <- slight feedback
-----------------------------------------------------------|           (harmonic only)
-----------------------------------------------------------|

----------------------------------2-----------------|
---/10vvvv-5----------------------3-----------------|
-----------6----------------------4-----------------|
--("7")-------\("5")/"7"vvvvvvv---------------------|
------------------------------------//////0---vvvv--|

Verse 3:
(hold low E till "dedication", than dive out w/bar)

Em
And she talks to the river of a lost love and dedication
D/E
And what silent replies is a swirl invitation
C/E
Flow dark and troubled to an oily sea
Em                     D/E            Em                      D/E
A grim intmation, of what is to be.

------------------------------------------------------------------|
--------------------------------------------------------0---7--\--|
---------------------------------------------------0----0---7--\--|
----------------------0--2-----0--0-------------------------7--\--|
------------------------------------------------------------------|
-------------------------------------0vvvvvvv---------------------|

             Em
There's an unceasing wind, that blows through this night,
         D/E
There's dust in my eyes, it blinds my sight,	(Play Fill D)
     C/E
And silence that speaks so much louder than words,  (Play Fill D)
    Em
Of promises Jenny's broken.

SOLO:
--------------------------------------------0--0--0--0--0--0--0--0vvvv--|
------------------------------------------3/5--5--5--5--5--5--0--0vvvv--|
---7/9\7-\-----(2)>4\-(-3)>4vvvvvvv>2>0---------------------------------|
---7/9\7-\--------------------------------------------------------------|
---5/7\5-\--------------------------------------------------------------|
------------------------------------------------------------------------|

---0-----------0---0---0---0-----------------------------------|
---0----2>3>2--0---0---0---0-----------------------------------|
------------------------------'2'>'3'>'2'vvvvv--2>0--2vvvvvv---|
---------------------------------------------------------------|
---------------------------------------------------------------|
---------------------------------------------------------------|

----------------------------------------------------------------------|
----------------------------------------------------------------------|
----------------------------------------------------------9--7vvvvvv--|
--/2--5--/0---5--2>0------5-------------------------------9--7vvvvvv--|
----------------------2>0-----2>0--------------------/7---------------|
------------------------------------3---0vvvvvvvv---------------------|

------------------------------0------------------------------------------|
--/0-------------------3/5-------5vvvvv----------------------------------|
-------2>(4)>2vvvv-----------------------2-\/-\/vvvvvv---2--2/4>0-2vvv---|
-------------------------------------------------------------------------|
-------------------------------------------------------------------------|
-------------------------------------------------------------------------|

-----------------------------------------------------0--|
------------------------------------------------3/5-----|
--0>2--2vvvv----2>3>2>0--2--0>2vvvv\/vvvvv>0------------|
--------------------------------------------------------|
--------------------------------------------------------|
--------------------------------------------------------|

--0---5>0--0--3>0--0--5>0--0--3>0--0--5>0--0--3---2--2---\/-\/-\/-\/-vvvvv--|
----------------------------------------------5---3--3---\/-\/-\/-\/-vvvvv--|
----------------------------------------------------------------------------|
----------------------------------------------------------------------------|
----------------------------------------------------------------------------|
----------------------------------------------------------------------------|
[ Tab from: http://www.guitartabs.cc/tabs/r/roxette/we_like_to_party_tab_ver_2.html ]
------------0-------------------------------------------------------|
---(3)>5------3>0---------------------------------------------------|
-------------------2>(3)>2>0-----2----------------------------------|
------------------------------2------2----0>2>0---------------------|
--------------------------------------------------------------------|
--------------------------------------------------\5---0vvvvvvvvvv--|

--------------12--14--15--17>(19)vvvvv--17>(19)>17>15---17>(19)>17>15--17vvv-|
---15>(17)\------------------------------------------------------------------|
-----------------------------------------------------------------------------|
-----------------------------------------------------------------------------|
-----------------------------------------------------------------------------|
-----------------------------------------------------------------------------|

--17>(19)vvvvvvv------15--17vvvvvv\---0--0-----0----------------------|
--------------------------------------0--3/5---5------5\3>0-----------|
--------------------------------------------------------------2>(4)---|
----------------------------------------------------------------------|
----------------------------------------------------------------------|
----------------------------------------------------------------------|

--------------------------------------------------------------------|
--------------------------------------------------------------------|
--2>(4)>2>0-----2>0-------------------------------------------------|
-------------2--------2---0---2-------------------------------------|
-------------------------------------0------------------------------|
----------------------------------3-----3---0---0----/////0vvvvvv---|

-----------------------------/5---0---------------------------------|
-----------------------------/5-------5vvvvvv---8---8vvvv---7--7>8--|
--2>(4)---'0'vvvvv----------------------------------7vvvv-----------|
--------------------2vvvvvv-----------------------------------------|
--------------------------------------------------------------------|
--------------------------------------------------------------------|

---------------------------------------------------------------|
--8>(10>8>7-----8>7--------------------------------------------|
-------------9-------9>7---9>7----------2>0--------------------|
---------------------------------9\7>5------2>0----------------|
--------------------------------------------------5>(7)vvvv\---|
---------------------------------------------------------------|

----------------------12--14--15--15>(17)vvvvv--15--14>(12)---15vvvvvv---|
--15>(17)======>(15)-----------------------------------------------------|
-------------------------------------------------------------------------|
-------------------------------------------------------------------------|
-------------------------------------------------------------------------|
-------------------------------------------------------------------------|

---14>12-----------------12--------------------------------------|
----------15vvvvvvvvv---------------15---------------------------|
----------------------------14>(16)-----14vvvvvv---4---2vvvvvv---|
-----------------------------------------------------------------|
-----------------------------------------------------------------|
-----------------------------------------------------------------|

---------------------------------------------------|
----------------------------------7-------/8---0---|
----------------------------------7----------------|
--2---2---2>0----2vvvvvvvv>0------7--7--0----------|
---------------------------------------------------|
---------------------------------------------------|

--------------------------------------------------------|
--15>(17)vvvvvvv>15>12--14>(15)>12----------------------|
--------------------------------------14>(16)>14---12\--|
--------------------------------------------------------|
--------------------------------------------------------|
--------------------------------------------------------|

------14vvvvvvvv--14>(15)>14>12--14vvvvv\/vvvvvv--12--14--15--15>17vvvvv--|
---12---------------------------------------------------------------------|
--------------------------------------------------------------------------|
--------------------------------------------------------------------------|
--------------------------------------------------------------------------|
--------------------------------------------------------------------------|

--15>(17)--15--14>12--14>(15)========>14>12---12---------------|
--------------------------------------------15--15>(17)vvvvv\--|
---------------------------------------------------------------|
---------------------------------------------------------------|
---------------------------------------------------------------|
---------------------------------------------------------------|

---------------------------------------------|
------15VVVVvvvvvvvv-15>(17)>VVVVVVVVVV------|
--14-----------------------------------------|
---------------------------------------------|
---------------------------------------------|
---------------------------------------------|

--------------------------------------------------------------------------|
-------0------------------------------------------------------------------|
---------------12-\/--\/--14>(16)vvvvv--/12--14--14>(16)>14--12-----------|
-----------14----------------------------------------------------14vvv\---|
--------------------------------------------------------------------------|
---12---------------------------------------------------------------------|

------------------------0---0------------0---0---0----------------------|
------------------------0---0--3/5--3>0--0---0---5----------------------|
--0--'2'vvvv--0>2vvvvv------------------------------2>0-----------------|
--------------------------------------------------------2>0----2vvvvv---|
------------------------------------------------------------------------|
------------------------------------------------------------------------|

------------------------------------------------------------|
------------------------------------------------------------|
--0---------------------------------------------------------|
-----2>0--------------------0>2--0>2--5>2--5/7--7vvvvvvv----|
---------2>0----5-------------------------------------------|
-------------3-----3---0------------------------------------|

----------------------------------------------------|
----------------------------------------------------|
--------0-------2>(3)>2>0---2>0---------------------|
--0--2-----0>2--------------------2/4\2--0vvvvvvv---|
----------------------------------------------------|
----------------------------------------------------|

------12-------12--------12--------11-------12vvvvvvvv-----------|
--15>(17)--15>(17)---15>(17)---14>(16)--15>(17)vvvvvvv--    <----| unison
-----------------------------------------------------------------|        bends
-----------------------------------------------------------------|
-----------------------------------------------------------------|
-----------------------------------------------------------------|

-----12vvvvv-------12vvvv-------14vvv---------------------------------------|
-15>(17)vvvv---15>(17)vvv---17>(19)vv--19>(20)vvvvv--19>(20)vvvv---19>(20)--|
----------------------------------------------------------------------------|
----------------------------------------------------------------------------|
----------------------------------------------------------------------------|
----------------------------------------------------------------------------|

------17vvvv-------17vvvvvv------17------17------17------17------17---------19-|
--20>(22)vvv---20>(22)vvvvv--20>(22)-20>(22)-20>(22)-20>(22)-20>(22)-20>(22)---|
-------------------------------------------------------------------------------|
-------------------------------------------------------------------------------|
-------------------------------------------------------------------------------|
-------------------------------------------------------------------------------|

--19vvvvv--19vvvvvvvvvvv\----------------------------|
-----------------------------------------------------|
------------------------------2>(3)>2>0--------------|
------------------------------------------2vvvvvvv---|
-----------------------------------------------------|
-----------------------------------------------------|

------0--------------------------------------------------------------------|
----------12-VVVVVVV\------------------------------------------------------|
-/9-------12-VVVVVVV\--7---------------------------------------------------|
----------12-VVVVVVV\--7--7>(8)>7>5--7vvvv---------------------------------|
--------------------------------------------7--7----------------5----------|
--------------------------------------------------5>(6)>5--3--0----3---0---|

-----------------------------------------------------------------|
--------------------------------------------------------------7--|
--------------------------------------------------7--9--7--9-----|
--2--2--4--4/5--4--'5'--5/7--5--4--7/9vvvv---7--9----------------|
-----------------------------------------------------------------|
-----------------------------------------------------------------|

----------------------------------------------|
--8>7>5----5>3>0---3>0------------------------|
---------7-------2----------------------------|
------------------------2>0--5--2>0-----------|
--------------------------------------2-------|
-----------------------------------------3/5--|

Fills:
------

Fill A
------------------|
--7---------------|
----7-----7vvvvv--|
-------9----------|
------------------|
------------------|

Fill B
------------|
------------|
------------|
------------|
------------|
--10\3--0\--|

Fill C
--------------|
--------------|
--------------|
------2-------|
--------------|
-2/3------3---|


Fill D
-------------|
-------------|
-------------|
------0------|
-1/2---------|
---------0---|
Comments