Roxette - Turning Away Chords & Tabs

 

Turning Away Chords & Tabs

Roxette Chords & Tabs

Version: 1 Type: Tab 0 ratings
1 star 2 stars 3 stars 4 stars 5 stars
comments

Turning Away Tab

   
TURNING AWAY
ROXETTE  -  TOURISM  (1990)

Let's stop turning away
From the feared and the opressed
And the ones they which we won't understand
If you start to believe that what is happening
Is just a case of others suffering
Or you'll find that your starting to turn away

                      G
It's no sin that somehow
          C             Em         D     G5   G                C
Light is coming from the shadow, And turning away from all we have known
Em              C           G       Em            G        C
Unaware of how much we can grow, And you don't have to be stoned,
G                C    Em          D      G5    G
I know that I am not alone in the dream of the proud

Em      D        G
On the wings of the night
         C            Em             D      G
When the daytime is coming, And the sober unite in a
C              Em                    C         G        Em                G
sober accord, Doing these drunks will find are strange, mesmerized as We light
   C           G                 C       Em       D         G
the flame, We can feel the new wind of change on the wings of the night


BRIDGE:(distorted electric)

E5   D   Cadd9   C5    D5    Em     D    A5  (B note on fifth string)

(A note on fifth string) C5 C#5/D5/A5\  A5   Am   C  C#5/D5/A\  E5

/ = Slide up to next chord   \ = slide down to next chord

VERSE:
  Em       D     G5              C            Em
No more turning away,  from the weak and the weary,
           D         G5           C
   Let's stop turning away, from the coldness inside
e-|---------------------------------------------------------------|
B-|--------------------------------1------------------------------|
G-|---------------------0----------0----------------10b(11)r10--5-|
D-|---------------------0----------2------------------------------|
A-|---------------------X----------3------------------------------|
E-|---------------------3-----------------------------------------|
  Em       D     G5              C            Em
No more turning away, from the meek and the mild
           D         G5           C
   Let's stop turning away, from the evilness inside
e-|---------------------------------------------------------------|
B-|--------------------------------1------------------------------|
G-|---------------------0----------0----------------10b(11)r10--5-|
D-|---------------------0----------2------------------------------|
A-|---------------------X----------3------------------------------|
E-|---------------------3-----------------------------------------|
   Em                     C          G5         Em               G          C
   Just a world that we all must share It's not enough just to stand and stare
e-|---------------------------------------------------------------------------|
B-|---------------------------------------------------------------------------|
G-|-------------------------0------0------------------------------------------|
D-|-5---------------------5-2------0------------------------------------------|
A-|---7---------------------3------X------------------------------------------|
E-|---0----------------------------3------------------------------------------|

  G        Em                  C            D            G
It is my biggest dream that there'll be no more turning away

SOLO:
       G
e-|-------------------|
B-|-------------------|
G-|-------------------|
D-|-------------------|
A-|-------------------|
E-|--0-2b(3)--2vvvvv--|

e-|----------------------------------------12-------------------|
B-|--15b(17)vvvvvvv---15p12-(13)r15vvvvvv-------12vvvvvvvvvv----|
G-|-------------------------------------------------------------|
D-|-------------------------------------------------------------|
A-|-------------------------------------------------------------|
E-|-------------------------------------------------------------|

e-|-------------------------------------------------------------------------|
B-|-------------------------------------12-----15-----15>(17)>15-vvvvvvvvv--|
G-|-------0-2-2>(3)>2>0-----------------------------------------------------|
D-|----\2----------------2-vvvvvvvv-----------------------------------------|
A-|-------------------------------------------------------------------------|
E-|-------------------------------------------------------------------------|

e-|------------------------------------------------------------------------|
B-|------15b(17)===========>15--15-15vvvvvvvv--12---------15-vvvvvvvvvv----|
G-|--------------------------------------------------14--------------------|
D-|------------------------------------------------------------------------|
A-|------------------------------------------------------------------------|
E-|------------------------------------------------------------------------|

e-|---------------------------------------------|
B-|---------------------------------------------|
G-|--2b(4)r2vvvvp0----0-------------------------|
D-|-----------------2----2-(0)--2vvvvvvvvv------|
A-|---------------------------------------------|
E-|---------------------------------------------|

e-|---------------------------------------------------------------------------|
B-|---------------------------------------------------------------------------|
G-|---------12-------14-------------12--------14>(16)vvvvv------------12------|
D-|----/14-------14--------14vvvvv-------14------------------------14------14v|
A-|---------------------------------------------------------------------------|
E-|---------------------------------------------------------------------------|
[ Tab from: http://www.guitartabs.cc/tabs/r/roxette/turning_away_tab.html ]
e-|-------------------------------------------------------------------|
B-|--------------------------------------------------3----------------|
G-|----------------------------------------------2---2----------------|
D-|-----9\7--5vvvvv--5>7---5vvvvvv---5\4----2>0--0---0----------------|
A-|------------------------------------------------------2--0---------|
E-|-------------------------------------------------------------3-----|

e-|----3/5---3---3--0--2----0-------------------------------------------------|
B-|----3/5---3---3--0--2----0-------------------------------------------------|
G-|---------------------------------------------------------------------------|
D-|---------------------------------------------------------------------------|
A-|---------------------------------------0--2-2<(3)=====>2--2--3>2>0--0------|
E-|----------------------------0----0---3-----------------------------3---0vvv|

e-|---------------------------------------------------------------------------|
B-|-15>(17)-------------15>12-15vvvvvvvvvv---15-------------------------------|
G-|------------------------------------------------12---11----11------12vvvvvv|
D-|------------------------------------------------12---12----12--12--12vvvvvv|
A-|---------------------------------------------------------------------------|
E-|---------------------------------------------------------------------------|

e-|---------------------------------------------------------------------------|
B-|------15>12----------------------------------------------------------------|
G-|--------------12----12---12>11--11----/7----7vvvvvv--9===>(11)>9>7-9vvvvv--|
D-|---------------------------------------------------------------------------|
A-|---------------------------------------------------------------------------|
E-|---------------------------------------------------------------------------|

e-|---------------------------------------------------------------------------|
B-|----"7"---8---8>(10)vvvvvvv>8>7--------7--->8------------------------------|
G-|---------------------------------9-"9"---------6>(7)vvvvvvv-----2>(4)>2vvv-|
D-|---------------------------------------------------------------------------|
A-|---------------------------------------------------------------------------|
E-|---------------------------------------------------------------------------|

e-|--------------------------------------3--3---3---3---3---3---3-------|
B-|----------------------------------0---3--3---3---3---3---3---3-------|
G-|------------0-------2>(4)---------0----------------------------------|
D-|----2p0--2-----2-----------0------0----------------------------------|
A-|----------------------------------2----------------------------------|
E-|----------------------------------3----------------------------------|

e-|--------15vvvvv---12---------------12-14-15>(17)--17>(19)====>17>15--17vvvv|
B-|--15>17---------------15>(17)vvv-------------------------------------------|
G-|---------------------------------------------------------------------------|
D-|---------------------------------------------------------------------------|
A-|---------------------------------------------------------------------------|
E-|---------------------------------------------------------------------------|

e-|-15---17---17>(19)===>17--15>12-15>0vvvvvvvv-------------------------------|
B-|----------------------------------------------15>(17)vvvvvvvvv-15>12--15vvv|
G-|---------------------------------------------------------------------------|
D-|---------------------------------------------------------------------------|
A-|---------------------------------------------------------------------------|
E-|---------------------------------------------------------------------------|

e-|---------------------------------------------------------------------------|
B-|-15>12--12\--------------------------------------15/17\15--15/17--0-8-0-3-0|
G-|-------------14>(16)===>14-14>12>14>12vvvvvvvvv----------------------------|
D-|---------------------------------------------------------------------------|
A-|---------------------------------------------------------------------------|
E-|---------------------------------------------------------------------------|

e-|--------------------------------------------------------|
B-|--------------------------------------------------------|
G-|------3--------------------2>(4)>2>0--------------------|
D-|----------2>0----------2-----------------2vvvvvvvv------|
A-|----------------2>0-------------------------------------|
E-|--------------------------------------------------------|

e-|------------------------------------------------------------------------|
B-|---10vvvvvvvvvvvv----10/12--12vvvvvvvvvvv---10>(12)====>10>8--10vvvv----|
G-|------------------------------------------------------------------------|
D-|------------------------------------------------------------------------|
A-|------------------------------------------------------------------------|
E-|------------------------------------------------------------------------|

e-|----------10--------------------------------------------------------------|
B-|--8---10------10>(12)vvvvvvvvv--10>(12)==>10>8---10>8\7-\/-\/-\/--8-8vvvvv|
G-|--------------------------------------------------------------------------|
D-|--------------------------------------------------------------------------|
A-|--------------------------------------------------------------------------|
E-|--------------------------------------------------------------------------|

e-|------15>12------14>12--------15>12-------14>12------15>(17)vvvvv--|
B-|---0---------12----------12-----------12---------12----------------|
G-|-------------------------------------------------------------------|
D-|-------------------------------------------------------------------|
A-|-------------------------------------------------------------------|
E-|-------------------------------------------------------------------|

e-|--15>14--14>(15)>14--------------------------------------------------------|
B-|---------------------15------------12------15vvvvv---12>15>12--------------|
G-|---------------------------14vvv-------14----------------------14>12vvvvv--|
D-|---------------------------------------------------------------------------|
A-|---------------------------------------------------------------------------|
E-|---------------------------------------------------------------------------|

e-|-------------------------------------------|
B-|-------------------------------------------|
G-|-------2vvvvvvv----------------------------|
D-|------------------0>2>0--------------------|
A-|-------------------------------0-----------|
E-|--------------------------3---------0\-----|
Comments