Roxette - Summers Rain Chords & Tabs

 

Summers Rain Chords & Tabs

Roxette Chords & Tabs

Version: 1 Type: Tab 0 ratings
1 star 2 stars 3 stars 4 stars 5 stars
comments

Summers Rain Tab

   
Roxette  "Summer's Rain"
Riff 1
E--|-----------------------------------------------------------------------|
B--|-7---------------------7----------------7------------------------------|
G--|-----9---7---6----6-7----9--7----9-7-------9--7--6---6--7--9--9--------|
D--|-------------------------------9-----9---------------------------9--8--|
A--|-----------------------------------------------------------------------|
E--|-----------------------------------------------------------------------|

E--|-----------------------------------------------------------------------|
B--|-7---------------------7----------------7------------------------------|
G--|-----9---7---6----6-7----9--7----9-7-------9--7--6---6--7--9--9--------|
D--|-------------------------------9-----9---------------------------9--8--|
A--|-----------------------------------------------------------------------|
E--|-----------------------------------------------------------------------|
    Standing alone,        in a dream    where nothing is real oh how...

E--|-----------------------------------------------------------------------|
B--|-7---------------------7----------------7------------------------------|
G--|-----9---7---6----6-7----9--7----9-7-------9--7--6---6--7--9--9--------|
D--|-------------------------------9-----9---------------------------9--8--|
A--|-----------------------------------------------------------------------|
E--|-----------------------------------------------------------------------|
     there were times I lost my way I was alone lost...  where are you now.

E--|-------------------------------|
B--|-------------------------------|
G--|-P\-----------4----------------|
D--|-P\-----------4------------4---|
A--|-P\-----------2------------4---|
E--|-P\------------------------2---|
            I'll find you some how

E--|--------------------------------------------------------------|
B--|--------------7---8---10--------------------------------------|
G--|-7----------7------------------4------------------7-6---6-7---|
D--|-7-----------------------------4----------------------6-------|
A--|-5-----------------------------2------------------------------|
E--|--------------------------------------------------------------|
     And do I stand alone   like a fool out in the rain

E--|-----------------------------------------------------------------------|
B--|-----------------------------------------------------------------------|
G--|--------------------------------------------------2------------2-------|
D--|-------5------------------------------------------2------------2-------|
A--|-------5------------------------------------------0------------0-------|
E--|-------3---------------------------------------------------------------|
   Hangin' on somehow to an ancient vow where there's nothing left to gain

E--|---------------------------------------------------|
B--|---------8-7---8-7---8-7---7-8---------------------|
G--|-------------9-----9-----9-------4-----------------|
D--|-----2---------------------------4-----------------|
A--|-----2---------------------------2-----------------|
E--|-3-2-0---------------------------------------------|
             And do you know      How it feels inside

E--|-------------0--------------------------------------------|
B--|------------0---------------------------------------------|
G--|-----------0----------------------4-----------------------|
D--|-----2----------------------------4-----------------------|
A--|-----2----------------------------2-----------------------|
E--|-3-2-0----------------------------------------------------|
             To be all alone          A fool and his pride

Verse 2   repeat riff 1

Overlay power chords

B5                            A5   D5               B5        F#5
Scars are the wounds that we show, time only heals when we're letting go

[ Tab from: http://www.guitartabs.cc/tabs/r/roxette/summers_rain_tab.html ]
E--|-------------------------------|
B--|-------------------------------|
G--|-P\-----------4----------------|
D--|-P\-----------4------------4---|
A--|-P\-----------2------------4---|
E--|-P\------------------------2---|
            I'll find you some how

E--|--------------------------------------------------------------|
B--|--------------7---8---10--------------------------------------|
G--|-7----------7------------------4------------------7-6---6-7---|
D--|-7-----------------------------4----------------------6-------|
A--|-5-----------------------------2------------------------------|
E--|--------------------------------------------------------------|
     And do I stand alone   like a fool out in the rain

E--|-----------------------------------------------------------------------|
B--|-----------------------------------------------------------------------|
G--|--------------------------------------------------2------------2-------|
D--|-------5------------------------------------------2------------2-------|
A--|-------5------------------------------------------0------------0-------|
E--|-------3---------------------------------------------------------------|
   Hangin' on somehow to an ancient vow where there's nothing left to gain

E--|---------------------------------------------------|
B--|---------8-7---8-7---8-7---7-8---------------------|
G--|-------------9-----9-----9-------4-----------------|
D--|-----2---------------------------4-----------------|
A--|-----2---------------------------2-----------------|
E--|-3-2-0---------------------------------------------|
             And do you know      How it feels inside

E--|-------------0--------------------------------------------|
B--|------------0---------------------------------------------|
G--|-----------0----------------------4-----------------------|
D--|-----2----------------------------4-----------------------|
A--|-----2----------------------------2-----------------------|
E--|-3-2-0----------------------------------------------------|
             To be all alone          A fool and his pride

E--|-------------------------------------------------------------------------|
B--|-7---------------------7-----------------7-------------------------------|
G--|-4----9----7----9--7---2---9---7---9--7------9---7--6--------------------|
D--|-4---------------------2-----------------5-------------7-----------------|
A--|-2---------------------0-----------------5----------------9--------------|
E--|-----------------------------------------3-------------------------------|
                                                           In a summer's rain

E--|-------------------------------------------------------------------------|
B--|-7---------------------7-----------------7-------------------------------|
G--|-4----9----7----9--7---2---9---7---9--7------9---7--6--------------------|
D--|-4---------------------2-----------------5-------------7-----------------|
A--|-2---------------------0-----------------5----------------9--------------|
E--|-----------------------------------------3-------------------------------|
                                                           In a summer's rain

E--|-------------------------------------------------------------------------|
B--|-7---------------------7-----------------7-------------------------------|
G--|-4----9----7----9--7---2---9---7---9--7------9---7--6--------------------|
D--|-4---------------------2-----------------5-------------7-----------------|
A--|-2---------------------0-----------------5----------------9--------------|
E--|-----------------------------------------3-------------------------------|
                                                           In a summer's rain

E--|-------------------------------------------------------------------------|
B--|-7---------------------7-----------------7-------------------------------|
G--|-4----9----7----9--7---2---9---7---9--7------9---7--6--------------------|
D--|-4---------------------2-----------------5-------------7-----------------|
A--|-2---------------------0-----------------5----------------9--------------|
E--|-----------------------------------------3-------------------------------|
                                                           In a summer's rain
Comments