Roxette - Signs Of Life Chords & Tabs

 

Signs Of Life Chords & Tabs

Roxette Chords & Tabs

Version: 2 Type: Tab 0 ratings
1 star 2 stars 3 stars 4 stars 5 stars
comments

Signs Of Life Tab

SIGNS OF LIFE
Roxette  -  Tourism  (1990)

e-|-------------------------<12>--10--12h14-(14)p12--10p0---7h10------------|
B-|------------------------<12>---------------------------------------------|
G-|-----------------------<12>----------------------------------------------|
D-|-------------------------------------------------------------------------|
A-|-----------------------------------------------------------------W.Bar---|
E-|-0-----0-0-0-0-0----------------------------------------------0\-(-1)-/0-|

e-|---<12>--10--12h14-(14)p12--10p0---7h10-/(12)\10-7-----------------------|
B-|--<12>-------------------------------------------------------------------|
G-|-<12>--------------------------------------------------------------------|
D-|-------------------------------------------------------------------------|
A-|-------------------------------------------------------------------------|
E-|-------------------------------------------------------------------------|

e-|---<12>-------------------0---0----0--------------------------------------|
B-|--<12>---13---(0)----13-------3/5--5/(.5)\5---(5)p3-----------------------|
G-|-<12>-----------(0)---------------------------------4\0-2p0---------------|
D-|------------------------------------------------------------2p0-----------|
A-|----------------------------------------------------------------2p1p0-----|
E-|----------------------------------------------------------------------3-0-|
[ Tab from: http://www.guitartabs.cc/tabs/r/roxette/signs_of_life_tab_ver_2.html ]
e-|--------------------------------------------------------------------------|
B-|-15/(17)=====>(17)\15p12----15-15-15/(17)======>((17)\15p12)--------------|
G-|-------------------------14-----------------------------------------------|
D-|--------------------------------------------------------------------------|
A-|--------------------------------------------------------------------------|
E-|--------------------------------------------------------------------------|

e-|----------------------------12--------------------------------------------|
B-|-15/(17)=====>(17)-12----15----12-\(11)/-12--\--(0)-----------------------|
G-|----------------------14----------W.Bar-----------------------------------|
D-|--------------------------------------------------------------------------|
A-|--------------------------------------------------------------------------|
E-|--------------------------------------------------------------------------|

e-|----12\10--10--10\7--7--7\5--7\5--3--2/(3)\2--0--(-2)/0--0---------------|
B-|---------------------------------------W.Bar------W.Bar------------------|
G-|-------------------------------------------------------------------------|
D-|----14\12--12--12\9--9--9\7--9\7--5--4/(5)\4--2---(0)/2--2----(2)\0------|
A-|--------------------------------------------------------------------0----|
E-|-12(Fretwith Thumb)------------------------------------------------------|

e-|------------------------------------------------||
B-|------------------------------------------------||
G-|-2/(3)\2p0---2-0--------------------------------||
D-|-----------2-----2p0----------------------------||
A-|---------------------2p1p0----------------------||
E-|---------------------------3-0-\(-2)/-0---------||
Comments