Roxette - Building The Bricks Part 3 Chords & Tabs

 

Building The Bricks Part 3 Chords & Tabs

Roxette Chords & Tabs

Version: 1 Type: Tab 0 ratings
1 star 2 stars 3 stars 4 stars 5 stars
comments

Building The Bricks Part 3 Tab

   
Building the bricks Part 3

Dm                                   Dm7
I   don't  need  the  Wall  around me
Dm                                Dm7
I don't need fuckers to call me
Dm                                   G
I have seen the writing on the wall
Dm                             G
I don't think I need anything at all
                                   Dm
No, I don't think I need anything at all

F                 C                      Dm
After everything it was just the building of the wall

F                   C                      Dm
After everything it was just the building of the wall . . .

Bm                      C        Em
        Open your heart, I'm coming home

SOLO:(Gtr. 2 electric plays Rhy. fig. 2 - 8 X)
   (Rhythm fig 2)                                           (end Rhy. fig 2)
e-|--------------------------|----------------------|-----------------------||
B-|--------------------------|----------------------|-----------------------||
G-|--------------------------|----------------------|-----------------------||
D-|--------------------------|----------------------|-----------------------||
A-|--------------------------|----------------------|-----------------------||
E-|-10\--0--2-2>(3)-2vvvvvv--|--0--2-2>(3)-2vvvvvv--|--0-0-2-2>(3)-2vvvvvvv-||

(Gtr. 3 electric)
|-----------------------------------------------------------------------------|
|-3>(5)=======(5)vvvvvvvvvvvvv(5)=====>3--3>(5)==(5)vvvvvvvvvvvvvvv(5)====>3--|
|-----------------------------------------------------------------------------|
|-----------------------------------------------------------------------------|
|-----------------------------------------------------------------------------|
|-----------------------------------------------------------------------------|

|-----------------------------------------------------------------------------|
|-3>(5)vvvvvvvvvvvvvvvvvvvv>(4)>(5)>===(4)>(5)>===(4)>(5)------3>(5)vvvvvvvv--|
|-----------------------------------------------------------------------------|
|-----------------------------------------------------------------------------|
|-----------------------------------------------------------------------------|
|-----------------------------------------------------------------------------|

|-----------------------------------------------------------------------------|
|--3/7vvvvvvvvvv--5-7-7>(8)>7vvvvvvvvv---5-7-7>(8)>7vvvvvvvv---5-7-7>(8)>7vvvv|
|-----------------------------------------------------------------------------|
|-----------------------------------------------------------------------------|
|-----------------------------------------------------------------------------|
|-----------------------------------------------------------------------------|

|---------------5--7-5-7--7>(8)vvvvvvvvvv(8)==>7>(8)--7>(8)vvvvvvvv-7---|
|--5vvvvvv-7-8----------------------------------------------------------|
|-----------------------------------------------------------------------|
|-----------------------------------------------------------------------|
|-----------------------------------------------------------------------|
|-----------------------------------------------------------------------|
[ Tab from: http://www.guitartabs.cc/tabs/r/roxette/building_the_bricks_part_3_tab.html ]
|--7>(8)vvvvvvv(8)===>7--7>(8)vvvvvvvvv----------12-----------------------|
|----------------------------------------15>(17)-----15>(17)vvvvvvv>(16)--|
|-------------------------------------------------------------------------|
|-------------------------------------------------------------------------|
|-------------------------------------------------------------------------|
|-------------------------------------------------------------------------|

|------------12---15-----------12--15-------------------------|
|---15>(17)-----------15>(17)----------15>(17)vvvvvvvvvvvvvv--|
|-------------------------------------------------------------|
|-------------------------------------------------------------|
|-------------------------------------------------------------|
|-------------------------------------------------------------|

|----------------------------------12------------------------------------|
|--15>(17)======>15>12----------12-----15>(17)=====>(16)>(17)=======>15--|
|-----------------------14>(16)------------------------------------------|
|------------------------------------------------------------------------|
|------------------------------------------------------------------------|
|------------------------------------------------------------------------|

|----------14-15/17-17/19--17--19--19>(20)========(20)>19---19>(20)-17>19--|
|--15>(17)-----------------------------------------------------------------|
|--------------------------------------------------------------------------|
|--------------------------------------------------------------------------|
|--------------------------------------------------------------------------|
|--------------------------------------------------------------------------|
                                                          v-- slow dive w/ bar
|--19>17--20--19>(20)==>19--19>(20)==========(20)==>19>17--19--------------||
|--------------------------------------------------------------------------||
|--------------------------------------------------------------------------||
|--------------------------------------------------------------------------||
|--------------------------------------------------------------------------||
|--------------------------------------------------------------------------||

Play This 4 Times:
                                                         ____________________
                                                        | 1.-3.
e-|-------0-----0---|-------0-----0---|-------2-----2---|-------2-----2-----||
B-|-4---------------|-4---------------|-2-------3-------|-2-------3-----0---||
G-|-----6---6-----6-|-----6---6-----6-|-----4-----4---4-|-----4-----4------*||
D-|---6-------6-----|---6-------6-----|---4-------------|---4--------------*||
A-|-----------------|-----------------|-----------------|-------------------||
E-|-----------------|-----------------|-----------------|-------------------||
   __________________________________________
  | 4.
e-|-----2-----2--------2----|----2-----2----|
B-|--2-----------3----------|-2-----------3-|
G-|--------4--------4-----4-|-------4-------|
D-|-----4-------------------|----4----------|
A-|-------------------------|---------------|
E-|-------------------------|---------------|

Another Brick In The Wall Part 3 (Waters)


Dm                               Dm7
I don't need no arms around me

Dm                                Dm7
I don't need no drugs to calm me

Dm
I have seen the writing on the wall

Dm                             G
Don't think I need anything at all

                                   Dm
 No don't think I need anything at all

F                 C                      Dm
After everything it was just the building of the wall

F                   C                      Dm
After everything it was just the building of the wall . . .
Comments