Roxen - Yaadein Chords & Tabs

 

Yaadein Chords & Tabs

Roxen Chords & Tabs

Version: 1 Type: Tab 0 ratings
1 star 2 stars 3 stars 4 stars 5 stars
comments

Yaadein Tab

   
Song: yadain
Artist: Roxen
Tabbed by: Ummer Ishtiaq
Email: ummerishtiaq@hotmail.com


Standar Tunning (EADGBE)

Chords: G(320033), Cadd9(032033), D(xx0232), Bm(224432) 

        G5(355xxx) A5(577xxx) D5(5577xx) Bb5(2244xx)

Fill 1: e|-15-14----|
	B|-------15-|
	

2nd Guitar Arpeggio 1  	e|-----3---5-3---3-------3---7-3---3|
between chorus		B|---3----3----3-------3---3-----3--|
			g|-0-----------------0--------------|
	


Intro with D/C (Slash Chord) Arpeggio 

Intro		               Hmmm Hmmmmmmm...		Hmmm Hmmmmmmm...
e|--------------------------------------------------------------------|
B|-----3-------3-------3-------3---------3-------3-------3-------3----|
G|---0---0---0---0---0---0---0---0-----0---0---0---0---0---0---0---0--|
D|--------------------------------------------------------------------|
A|-----------------2-------3-------------------------2-------3--------|
E|-3-------2-------------------------3-------2------------------------|

		               Hmmm Hmm  mmm mm... Hmmm Hmmmmmmm...
e|--------------------------------------------------------------------|
B|-----3-------3-------3-------3---------3-------3-------3-------3----|
G|---0---0---0---0---0---0---0---0-----0---0---0---0---0---0---0---0--|
D|--------------------------------------------------------------------|
A|-----------------2-------3-------------------------2-------3--------|
E|-3-------2-------------------------3-------2------------------------|


Chorus Start

G              C	(Also use Arpeggio 1 in first two verses)	
Yadain Jeya Tarpain, 

   G			  C
In Ankhon Main, Neend Na Aayay

    Bm    D		C
Yeh Muunnnn   Tarapta Jayay, 

    Bm    D		C
Yeh Muunnnn   Tarapta Jayay, 

Fill 1:  e|-15-14----|
	 B|-------15-|
[ Tab from: http://www.guitartabs.cc/tabs/r/roxen/yaadein_tab.html ]
Arp: 1	 e|-----3---5-3---3-------3---7-3---3|
and	 B|---3----3----3-------3---3-----3--|
Strum	 g|-0-----------------0--------------|


Solo Starts here...


G			   Bm          C
Tum Saay yeah Rastay Kiyon Hon Gay Juda

G			 Bm       C
Dil kee yeh pukar hai na hona khafa

Bm	     D		   C
To phir kiyoon yeah Doorian

Bm	     D		   C
To phir kiyoon yeah Faslaay

Fill 1:  e|-15-14----|
	 b|-------15-|

 
Strum Chords on solo--> G             D    C         G        D    C
Solo:    e|-------------------------------------------------------------|
	 b|-8/10\8--8/10\8-10/12--10~~-8~~--8/10\8-10/12--10~-/15--\3---|


G		   Bm               C
Doorian Majboorian Rokain kiyon Mujhay

G			 Bm       C
Jan Lay ab duniya main na bhooloon usay

Bm    D  	   C
Ek aas Dhaltee jaayay

Bm       D 	        C
Yeh Piyaas bhartee jaayay

Fill 1:  e|-15-14----|
	 b|-------15-|

--------------
Repeat Chorus
--------------
 After chorus

G			C
aaa aaaaaaaa,,aa aa aaaaaaaaaaa

G		     C		    Bridge (G5 A5 Bb5) Now Strum Bb5 A5 G5
aa aa aaaaaa,,aa aa aaaaaaaaaaaaaa                    ooooooooooo ooooooo ooo



Bb5               A5              D5

OO oo o OOOOOOOOOOO oooooo oo ooooooo OOOOOO OOOOOOOOOOOO

Ending Fill
e|--------------------------------|
B|--------------------------------|
G|-5-5-5-4-4-4--------------------|
D|-------------7-7-7-5-5-5-4-4h5--|
A|--------------------------------|
E|--------------------------------|

That All !


For suggestions and feedback you can email me at ummerishtiaq@hotmail.com

Bye Bye
Comments