Roxen - Yaadein Chords & Tabs

 

Yaadein Chords & Tabs

Roxen Chords & Tabs

Version: 2 Type: Chords 0 ratings
1 star 2 stars 3 stars 4 stars 5 stars
comments

Yaadein Chords

   
Standard Tunning (EADGBE)

Chords: Gadd9(320033), Cadd9(032033), E#7(022033), Gsus2(xxx233) 

   	

 

Intro		               
e|--------------------------------------------------------------------|
B|-----3-------3-------3-------3---------3-------3-------3-------3----|
G|---0---0---0---0---0---0---0---0-----0---0---0---0---0---0---0---0--|
D|--------------------------------------------------------------------|
A|-----------------2-------3-------------------------2-------3--------|
E|-3-------2-------------------------3-------2------------------------|

		               

e|--------------------------------------------------------------------|
B|-----3-------3-------3-------3---------3-------3-------3-------3----|
G|---0---0---0---0---0---0---0---0-----0---0---0---0---0---0---0---0--|
D|--------------------------------------------------------------------|
A|-----------------2-------3-------------------------2-------3--------|
E|-3-------2-------------------------3-------2------------------------|



[ Tab from: http://www.guitartabs.cc/tabs/r/roxen/yaadein_crd_ver_2.html ]
Gadd9        Cadd9		
Yadain Jeya Tarpain, 

Gadd9           Cadd9
In Ankhon Main, Neend Na Aayay

      E#7    Gsus2             Cadd9
Yeh Muunnnnnnnnnnnnn   Tarapta Jayay, 

      E#7    Gsus2             Cadd9
Yeh Muunnnnnnnnnnn     Tarapta Jayay, 






Gadd9			   E#7           Gsus2
Tum Saay yeah Rastay Kiyon Hongeyyyyyy   Juda

Gadd9		         E#7             Gsus2
Dil kee yeh pukar hai na honaaaaaaaaaaaa khafa

    E#7	       Gsus2      Cadd9
To phir kiyoon yeah Doorian

    E#7	       Gsus2      Cadd9
To phir kiyoon yeah Faslaay


 

Gadd9			   E#7          Gsus2
Doorian Majboorian Rokain kiyoooooooooon Mujhay

Gadd9			   E#7          Gsus2
Jan Lay ab duniya main na bhooloooooooon usay

E#7  Gsus2      Cadd9
Ek aas Dhaltee jaayay

E#7  Gsus2      Cadd9
Yeh Piyaas bhartee jaayay


Thats All, Cheers!

salman868@hotmail.com

Comments