Roxen - Yaadain Chords & Tabs

 

Yaadain Chords & Tabs

Roxen Chords & Tabs

Version: 1 Type: Tab 0 ratings
1 star 2 stars 3 stars 4 stars 5 stars
comments

Yaadain Tab

   
chords

320033
032033
022003
000323

---------------------------------------------------

Song      : Yaadein

Band      : Roxen

Tabbed By : Orange Guitar


---------------------------------------------------

Ok...here is the intro....:

|-----------------------------------------|
|-----3-----3-----3-----3-----------------|
|----0-----0-----0-----0------------------|
|-----------------------------------------| (Play 8 times)
|---------------2-----3-------------------|
|--3------2-------------------------------|

Then a riff is played with chords..and 
the vocal come behind:

Riff:

|-----------------------7------------------|
|-7-8-8-10-8-8-8--7-8-8---8-8-8------------|
|------------------------------------------|
|------------------------------------------| (Play about 5 times)
|------------------------------------------|
|------------------------------------------|

Chords:

[G major]       [Cadd9]
|---3--------------3-----------------------|
|---3--------------3-----------------------|
|---0--------------0-----------------------|
|---0-(Strumming)--2-(Strumming)-----------|
|---2--------------3-----------------------|
|---3--------------x-----------------------|

Then electric guitar plays these chords
as arpeggio:

(First strum the lower 3 strings then play
 arpeggio on lower 3 strings)

|----x--~--7--~--3-------------------------|
|----x--~--7--~--3-------------------------|
|---10--~--7--~--4-------------------------|
|---12--~--9--~--5---(Repeat)--------------|
|---12--~--9--~--5-------------------------|
|---10--~--7--~--3-------------------------|

[YEAH MAN TARAPTA JAYE......]

Then again, play riff with chords:

Riff:

|-----------------------7------------------|
|-7-8-8-10-8-8-8--7-8-8---88---------------|
|------------------------------------------|
|------------------------------------------| (Play about 5 times)
|------------------------------------------|
|------------------------------------------|

Chords:

[G major]       [Cadd9]
|---3--------------3-----------------------|
|---3--------------3-----------------------|
|---0--------------0-----------------------|
|---0-(Strumming)--2-(Strumming)-----------|
|---2--------------3-----------------------|
|---3--------------x-----------------------|

Then the verse comes in with these chords:
[ Tab from: http://www.guitartabs.cc/tabs/r/roxen/yaadain_tab.html ]
----------------------------------
Gmaj(320033),Em7(x22033),D(xx0232)
----------------------------------

Gmaj.................Em7..........D......
Tum say yeah raastay kyon hon gay juda...

Gmaj.......................Em7....D.....
Kal kee yeah pukaar hai na hon ab khafa..

Then:

Play this for both verse.

(First strum the lower 3 strings then play
 arpeggio on lower 3 strings)

|----x--~--7--~--3-------------------------|
|----x--~--7--~--3-------------------------|
|---10--~--7--~--4-------------------------|
|---12--~--9--~--5---(Repeat)--------------|
|---12--~--9--~--5-------------------------|
|---10--~--7--~--3-------------------------|

[TOU PHIR KYON YEAH DOURIYAN......]

A smaal riff played:

e|-15p14-----------------------------------|
B|-------15--------------------------------|

Electric guitar plays this before solo:

|--x------------------x--------------------|
|--x------------------x--------------------|
|--7-(keep strumming)-2s5-(keep strumming--|
|--x------------------x--------------------|
|--x------------------x--------------------|
|--x------------------x--------------------|

Then a very simple solo:

|------------------------------------------|
|-8s10s8-12-10-8---8s10s8--12--10--10s12s15|
|------------------------------------------|
|------------------------------------------|
|------------------------------------------|
|------------------------------------------|

Verse with same chords:

Gmaj.................Em7..........D......
Dooriyan Majbooriyan rokay kyon mujhay

Gmaj.......................Em7....D.....
Jaan lay ke ab ..........................

(Electric Guitar Part)

|----x--~--7--~--3-------------------------|
|----x--~--7--~--3-------------------------|
|---10--~--7--~--4-------------------------|
|---12--~--9--~--5---(Repeat)--------------|
|---12--~--9--~--5-------------------------|
|---10--~--7--~--3-------------------------|

[Ik aas.dhalti jayee
yeh pytas barhti gayee..........]

Play the small riff and then play the chords
as given above for the verses and chorus. Then
some aaaaa.. with G and Cadd9

Power chords leads to ending:

|--x--x---x--x-x------------x---------------|
|--x--x---x--x-x------------x---------------|
|--x--x---x--x-x------------x---------------|
|--9-10--12--9-5--(Repeat)--5---------------|
|--9-10--12--9-5------------5---------------|
|--7-8---10--7-3------------3---------------|












Comments