Roxen - To Phir Aao Chords & Tabs

 

To Phir Aao Chords & Tabs

Roxen Chords & Tabs

Version: 1 Type: Tab 0 ratings
1 star 2 stars 3 stars 4 stars 5 stars
comments

To Phir Aao Tab

Roxen - To Phir Aao CHORDS


****************************
G#m - [4 6 6 4 4 4]
 F# - [2 4 4 3 2 2]
  E - [0 2 2 1 0 0]
****************************


G#m--------------------E--------
To phir aao ....mujhko satao ...
G#m--------------------E--------
to phir aao ....mujhko rulao ...


G#m------F#---------------E------------
Hum mmmmmm ....rahein na raheinnnn .....
G#m------F#----------------E------------
gummmmmmmm......sahein na saheinnnn...
G#m------F#------------------E------------
shaameinnnn .....dhalein na dhaleinnn......
G#m------F#---------------E------------
yeh raatein ......kate na kate ............


G#m--------------------E--------
To phir aao ....mujhko satao ...
G#m--------------------E--------------------F#-----------
to phir aao ....mujhko rulaoooooooooooo ...hooooooooooo


-------G#m------------------F#---------------------------E--------------F#
Aa bhi jaao ........aa bhi jaaaoooooo ............aa bhi jaao ...aa bhi jaao .......
-------G#m------------------F#---------------------------E--------------F#
aa bhi jaao ........aa bhi jaaaoooooo ............aa bhi jaao ...aa bhi jaao .......


(PIANO SOLO)


G#m------F#---------------E------------
hum mmmmmm ....rahein na raheinnnn .....
G#m------F#------------------E------------
dil kiiiiiiii .......sune na sune .....
G#m------F#---------------E------------
yeh toofan ......thame na thame ......
G#m------F#----------------E------------
yeh aansoo .......ruke na ruke  ............


G#m--------------------E--------
to phir aao ....mujhko satao ...
G#m--------------------E-------------------F#-----------------
to phir aao ....mujhko rulaoooooooooooo ...hooooo.........

-------G#m------------------F#---------------------------E--------------F#
aa bhi jaao ........aa bhi jaaaoooooo ............aa bhi jaao ...aa bhi jaao .......
-------G#m------------------F#---------------------------E--------------F#
aa bhi jaao ........aa bhi jaaaoooooo ............aa bhi jaao ...aa bhi jaao .......


Solo:

e|-----8h10-8-7h8-7-5h7-5-3-5-----------------------------------------|
B|----------------------------8-6-5-5-5-6h8-8-6-5-5-5-6h8-------------|
G|--------------------------------------------------------------------|
D|--------------------------------------------------------------------|
A|--------------------------------------------------------------------|
E|--------------------------------------------------------------------|

[ Tab from: http://www.guitartabs.cc/tabs/r/roxen/to_phir_aao_tab.html ]
e|--------------------------------------------------------------------|
B|-----------------6-8s10-10-10s12-12-12h13-13-13-13s15-13-15-13-13---|
G|-----7-7-5-4-5-7----------------------------------------------------|
D|--------------------------------------------------------------------|
A|--------------------------------------------------------------------|
E|--------------------------------------------------------------------|


e|------12-10-10-8-8-8-8-8-8----12-10-10-8-8-8-8-8-8------------------|
B|--------------------------------------------------------------------|
G|--------------------------------------------------------------------|
D|--------------------------------------------------------------------|
A|--------------------------------------------------------------------|
E|--------------------------------------------------------------------|


e|--------------------------------------------------------------------|
B|------13-12-12-12-13-12-10--13-12-12-12-13-13s15--------------------|
G|--------------------------------------------------------------------|
D|--------------------------------------------------------------------|
A|--------------------------------------------------------------------|
E|--------------------------------------------------------------------|


e|------12-10-10-8-8-8-8-8-8----12-10-10-8-8-8-8-8-8------------------|
B|--------------------------------------------------------------------|
G|--------------------------------------------------------------------|
D|--------------------------------------------------------------------|
A|--------------------------------------------------------------------|
E|--------------------------------------------------------------------|


e|--------------------------------------------------------------------|
B|------13-12-12-12-13-12-10--12-13-12--------------------------------|
G|--------------------------------------------------------------------|
D|--------------------------------------------------------------------|
A|--------------------------------------------------------------------|
E|--------------------------------------------------------------------|
(solo with mistakes)

G#m-------------------E----------------------
sapnoooo .........ke samandar mein ..........
G#m-------------------------E----------------------
doob keee ............chale jaana hai .......
G#m-------------------------E----------------------
phir ...............................................
G#m-------------------------E----------------------F#
tere khwaabon ko ...mujhe paana hai ...............hoooooooooooooooo


-------G#m------------------F#---------------------------E--------------F#
aa bhi jaao ........aa bhi jaaaoooooo ............aa bhi jaao ...aa bhi jaao .......
-------G#m------------------F#---------------------------E--------------F#
aa bhi jaao ........aa bhi jaaaoooooo ............aa bhi jaao ...aa bhi jaao .......
Comments