Rotting Christ - You Are I Chords & Tabs

 

You Are I Chords & Tabs

Rotting Christ Chords & Tabs

Version: 1 Type: Tab 0 ratings
1 star 2 stars 3 stars 4 stars 5 stars
comments

You Are I Tab

   
Band:  ROTTING CHRIST
Album: Khronos 666
Song:  You are I

Transcribed by:	Chris Humeniuk
Email:  father_death_666@hotmail.com

Tuning:	Standard

Keys:
 ___ - palm mute
 < > - pinch harmonic
  x  - mute
 / \ - slide


INTRO:
(Gtr 1)
|---------------------------------|     |-------------------------------------
|---------------------------------|     |-------------------------------------
|-4-4---4---4---4---4---4---4---4-|     |-4-4---4---4---4---4---4---4---4-4-4-
|-2-2---2---2---2---2---2---2---2-|     |-2-2---2---2---2---2---2---2---2-2-4-
|-2-2---2---2---2---2---2---2---2-|     |-2-2---2---2---2---2---2---2---2-2---
|-0-0-0-0-0-0-0-0-0-0-0-0-0-0-0-0-| 7x  |-0-0-0-0-0-0-0-0-0-0-0-0-0-0-0-0-0---
      _   _   _   _   _   _   _               _   _   _   _   _   _   _

(Gtr 2)
|---------------------------------|     |-------------------------------------
|---------------------------------|     |-------------------------------------
|-9-9---9---9---9---9---9---9---9-|     |-9-9---9---9---9---9---9---9---9-9-9-
|-9-9---9---9---9---9---9---9---9-|     |-9-9---9---9---9---9---9---9---9-9-9-
|-7-7-7-7-7-7-7-7-7-7-7-7-7-7-7-7-|     |-7-7-7-7-7-7-7-7-7-7-7-7-7-7-7-7-7-7-
|---------------------------------| 7x  |-------------------------------------
      _   _   _   _   _   _   _               _   _   _   _   _   _   _

(Gtr 1)
 --------------------------------------------------------------------|
 --------------------------------------------------------------------|
 --------------------------------------------------------------------|
 -----------------------------------------------------------<7>~-----|
 --------------------------------------------------------------------|
 --------------------------------------------------------------------|

(Gtr 2)
 --------------------------------------------------------------------|
 --------------------------------------------------------------------|
 --------------------------------------------------------------------|
 --------------------------------------------------------------------|
 -7-7-7-7-7-7-7-7--7-7-7-7-7-7-7-7--7-7-7-7-7-7-7-7--7-7-7-7-7-7-7-7-|
 --------------------------------------------------------------------|
  __________________________________________________________________


VERSE a:
(Gtr 1)
|---------------------------------|
|---------------------------------|
|-4-4---4---4---4---4---4---4---4-|
|-2-2---2---2---2---2---2---2---2-|
|-2-2---2---2---2---2---2---2---2-|
|-0-0-0-0-0-0-0-0-0-0-0-0-0-0-0-0-| 4x
      _   _   _   _   _   _   _

(Gtr 2)
|---------------------------------|
|---------------------------------|
|-9-9---9---9---9---9---9---9---9-|
|-9-9---9---9---9---9---9---9---9-|
|-7-7-7-7-7-7-7-7-7-7-7-7-7-7-7-7-|
|---------------------------------| 4x
      _   _   _   _   _   _   _


CHORUS a:
(Gtr 1)
|---------------------------------|
|---------------------------------|
|---4---2-------------------------|
|-2-4---2---4---5---7---4---2-4-2-|
|-2-2---0---4---5---7---4---2-4-2-|
|-0---0---0-2-0-3-0-5-0-2-0-0-2-0-|
      _   _   _   _   _   _

(Gtr 1)
|---------------------------------|     |---------|
|---------------------------------|     |---------|
|---4---2-------------------------|     |---------|
|---4---2---4---5---7---4---2-4-2-|     |---2-4-2-|
|---2---0---4---5---7---4---2-4-2-|     |---2-4-2-|
|-0---0---0-2-0-3-0-5-0-2-0-0-2-0-| 3x  |-0-0-2-0-| 4x
  _   _   _   _   _   _   _               _
[ Tab from: http://www.guitartabs.cc/tabs/r/rotting_christ/you_are_i_tab.html ]
(Gtr 2)
|-------------------------------------|     |----------|
|---12---10---7---8---10--------------|     |----------|
|----x----x---x---x----x---9---9/11\9-|     |---9/11\9-|
|----9----7---4---5----7---x---x------|     |---x------|
|--------------------------7---7-/9\7-|     |---7-/9\7-|
|-0----0----0---0---0----0---0--------| 4x  |-0--------| 4x
  _    _    _   _   _    _   _                _


VERSE - 4x


CHORUS b:
(Gtr 1)
|---------------------------------|
|---------------------------------|
|---4---2-------------------------|
|-2-4---2---4---5---7---4---2-4-2-|
|-2-2---0---4---5---7---4---2-4-2-|
|-0---0---0-2-0-3-0-5-0-2-0-0-2-0-|
      _   _   _   _   _   _

(Gtr 1)
|---------------------------------|
|---------------------------------|
|---4---2-------------------------|
|---4---2---4---5---7---4---2-4-2-|
|---2---0---4---5---7---4---2-4-2-|
|-0---0---0-2-0-3-0-5-0-2-0-0-2-0-| 3x
  _   _   _   _   _   _   _

(Gtr 2)
|-------------------------------------|
|---12---10---7---8---10--------------|
|----x----x---x---x----x---9---9/11\9-|
|----9----7---4---5----7---x---x------|
|--------------------------7---7-/9\7-|
|-0----0----0---0---0----0---0--------| 4x
  _    _    _   _   _    _   _


INTERLUDE:

|---------------|
|---------------|
|---------------|
|---------------|
|-2--2----------|
|-0--0--0-0-0-0-| 8x
  _____________

NOTE - play the following 8x:

|---------------|     |---------------|
|---------------|     |---------------|
|---------------|     |---------------|
|---------------|     |---------------|
|-2--2----------|     |---------------|
|-0--0--0-0-0-0-| 6x  |-5--5--5-5-5-5-| 2x
  _____________         _____________


VERSE b:
(Gtr 1)
|---------------------------------|
|---------------------------------|
|-4-4---4---4---4---4---4---4---4-|
|-2-2---2---2---2---2---2---2---2-|
|-2-2---2---2---2---2---2---2---2-|
|-0-0-0-0-0-0-0-0-0-0-0-0-0-0-0-0-| 2x
      _   _   _   _   _   _   _

(Gtr 1)
|---------------------------------|
|---------------------------------|
|-4-4---4---4---4---4---4---4---4-|
|-2-2---2---2---2---2---2---2---2-|
|-2-2---2---2---2---2---2---2---2-|
|-0-0-0-0-0-0-0-0-0-0-0-0-0-0-0-0-| 2x
      _   _   _   _   _   _   _

(Gtr 2)
|---------------------------------|
|---------------------------------|
|-9-9---9---9---9---9---9---9---9-|
|-9-9---9---9---9---9---9---9---9-|
|-7-7-7-7-7-7-7-7-7-7-7-7-7-7-7-7-|
|---------------------------------| 2x
      _   _   _   _   _   _   _


OUTRO:
(Gtr 1)
|---------------------------------|
|---------------------------------|
|---4---2-------------------------|
|-2-4---2---4---5---7---4---2-4-2-|
|-2-2---0---4---5---7---4---2-4-2-|
|-0---0---0-2-0-3-0-5-0-2-0-0-2-0-|
      _   _   _   _   _   _

(Gtr 1)
|---------------------------------|     |---------|
|---------------------------------|     |---------|
|---4---2-------------------------|     |---------|
|---4---2---4---5---7---4---2-4-2-|     |---2-4-2-|
|---2---0---4---5---7---4---2-4-2-|     |---2-4-2-|
|-0---0---0-2-0-3-0-5-0-2-0-0-2-0-| 7x  |-0-0-2-0-| 4x
  _   _   _   _   _   _   _               _

(Gtr 2)
|-------------------------------------|     |----------|
|---12---10---7---8---10--------------|     |----------|
|----x----x---x---x----x---9---9/11\9-|     |---9/11\9-|
|----9----7---4---5----7---x---x------|     |---x------|
|--------------------------7---7-/9\7-|     |---7-/9\7-|
|-0----0----0---0---0----0---0--------| 8x  |-0--------| 4x
  _    _    _   _   _    _   _                _
Comments