Rotting Christ - Triarchy Of The Lost Lovers Chords & Tabs

 

Triarchy Of The Lost Lovers Chords & Tabs

Rotting Christ Chords & Tabs

Version: 1 Type: Tab 0 ratings
1 star 2 stars 3 stars 4 stars 5 stars
comments

Triarchy Of The Lost Lovers Tab

Rotting Christ
Album: Triarchy Of The Lost Lovers
Song: King of a Stellar War
Major corrections by nikos Economakis (mike_eco@ergodata.gr)

RiFF 1(corected)
|---------------------------------------------------------------|
|---------------------------------------------------------------|
|---------------------------------------------------------------|
|---------------------------------------------------------------|
|-----7-7-7-7-7-7--2-2-2-2-2-2--7-7-7-7-7-7-7-7-7-7-7-7---------|
|-----5-5-5-5-5-5--3-3-3-3-3-3--5-5-5-5-5-5-5-5-5-5-5-5---------|
 P.M. .................................................
|----------------------------------------------------------------|
|----------------------------------------------------------------|
|----------------------------------------------------------------|
|-----2-2-2-2-2-2------------------------------------------------|
|-----3-3-3-3-3-3--3-3-3-3-3-3--7-7-7-7-7-7-7-7-7-7-7-7----------|
|------------------1-1-1-1-1-1--5-5-5-5-5-5-5-5-5-5-5-5----------|
 P.M. .................................................
(ps the chords are palm muted,so i can't count how many there are, thou it easy to find

Riff 2
|-------------------------------------------------------|
|-------------------------------------------------------|
|-----------------7-----------------------7-------------|
|-----------5--5--5-----------------5--5--5-------------|
|-----7--7--3--3-----7--7-----7--7--3--3-----7----------|
|-----5--5-----------5--5-----5--5-----------5----------|
P.M.     ^     ^     ^  ^        ^     ^     ^

|---------------------------------------------------------------|
|---------------------------------------------------------------|
|-----------------7---------------------------------------------|
|-----------5--5--5---------------------------------------------|
|-----7--7--3--3-----7--3--3--3-3-3-3-3--5--5--5-5-5-5-----|
|-----5--5-----------5--1--1--1-1-1-1-1--3--3--3-3-3-3------|
P.M.     ^     ^     ^        ^ ^ ^ ^ ^        ^ ^ ^ ^

Riff 3(corrected)
guitar 1
|----------------------------------------------------|
|----------------------------------------------------|
|----9-----------------------------------------------|
|-7-----10--9--7-/5------9--10--------10--9----------|
|-------------------------------8------------10------|
|----------------------------------------------------|
P.M.                               ^  ^   ^  ^

guitar 2
|----------------------------------------------------|
|----------------------------------------------------|
|----------------------------------------------------|
|---------------------5--5---------------------------|
|--7--7---------------3--3--------3--3---------------|
|--5--5---------------------------1--1---------------|
      ^                  ^           ^
P.M.

Riff 4
[ Tab from: http://www.guitartabs.cc/tabs/r/rotting_christ/triarchy_of_the_lost_lovers_tab.html ]
|---------------------------------------------------------------|
|---------------------------------------------------------------|
|---------------------------------------------------------------|
|---------------------------------------------------------------|
|----19..--17..--15..--14..--17..--14..--15..--17--17-17-17-17--|
|----------------------------------------------15--15-15-15-15--|
P.M. ^^    ^^    ^^    ^^    ^^    ^^    ^^        ^^ ^^ ^^ ^^
                                                   
|----------------------------------------------------------|
|----------------------------------------------------------|
|----------------------------------------------------------|
|----------------------------------------------------------|
|---15--15-15-15-15----------------------------------------|
/---13--13-13-13-13----------------------------------------|
        ^^ ^^ ^^ ^^      
|----------------------------------------------------|
|----------------------------------------------------|
|----------------------------------------------------|
|----------------------------------------------------|
|--14--15--17--14--15--17--14--15--17--15--14--------|
|----------------------------------------------17----|


Riff 5(corrected)
guitar 1
|------------------------------------------------|
|------------------------------------------------|
|------------------------------------------------|
|-----------------------5------------------------|
|-7---------------------3-----5------------------|
|-5---------------------------3------------------|
     
guitar 2
|------------------------------------------------------|
|------------------------------------------------------|
|---[----------5-------]-------------------------------|
|---[:--------7---7---:]-------------------------------|
|---[---7--7--------7--]------8--8--8--7--5------------|
|------------------------------------------------------|
         [:repeat three times ]
Riff 6
                               trill
|---------------------------------------------------|
|---------------------------------------------------|
|--------------------------------9-10--7------------|
|------7--5------------------------------10 -9------|
|---7--------7-8-5-----7----------------------------|
|---5------------------5----------------------------|
P.M.         ^ ^ ^

|---------------------------------------------------------------------|
|---------------------------------------------------------------------|
|---------------------------------------------------------------------|
|------7--5-----------------------------------------------------------|
|---7--------7-8-5----7-8-10-5-7-8--7-8-10-5-7-5----------------------|
|---5-----------------------------------------------------------------|
P.M.         ^ ^ ^    ^ ^ ^  ^ ^ ^  ^ ^ ^  ^ ^ ^

RIFF 8
|---------------------|
|---------------------|
|---------------------|
|-[:-3-5-0-:]----/7---|
|---------------------|
[:x3:]
Original tab by Cauwie.
Comments