Rotting Christ - Ten Miles High Chords & Tabs

 

Ten Miles High Chords & Tabs

Rotting Christ Chords & Tabs

Version: 1 Type: Bass Tab 0 ratings
1 star 2 stars 3 stars 4 stars 5 stars
comments

Ten Miles High Bass Tab

   
  
Band:  ROTTING CHRIST
Album: A DEAD POEM
Song:  TEN MILES HIGH (BASS TAB)

Copyright (c)
Version 1.0 - 04-27-2004

Transcribed By: FABIAN RODRIGUEZ
Email:          rotting_shaggyy@hotmail.com


Tunning E A D G
                                                                               >

INTRO
|-----------------------------------------------------------------|
|-----------------------------------------------------------------|
|-----------------------------------------------------------------|
|-5-5-5-5-5-5-5-5-5-5-5-5-5-5-5-5-1-1-1-1-1-1-1-1-1-1-1-1-1-1-1-1-|


|-------------------------------------------------------------------|
|-------------------------------------------------------------------|
|-3-3-3----3-3-3--5--------/8--------3-3-3----3-3-3-----5---------8-|
|-------------------------------------------------------------------|



 FIG 1                                   (6 TIMES)
|------------------------------------------------|
|---------------------------------------5----75--|
|--------------------------5-7----8-7-----8----8-|
|-5-7-8---7-5---7-8------8-----------------------|


 FIG 2               (4 TIMES)
|----------------------------|
|----------------------------|
|-0-00--0--0-0-0-0-----------|
|--------------------0-00-0--|


[ Tab from: http://www.guitartabs.cc/tabs/r/rotting_christ/ten_miles_high_btab.html ]
 FIG 1                                   (6 TIMES)
|------------------------------------------------|
|---------------------------------------5----75--|
|--------------------------5-7----8-7-----8----8-|
|-5-7-8---7-5---7-8------8-----------------------|


 FIG 2               (4 TIMES)
|----------------------------|
|----------------------------|
|-0-00--0--0-0-0-0-----------|
|--------------------0-00-0--|



(SOLO)
                                                    (2 TIMES)
|-----------------------------------------------------------|
|-----------------------------------------------------------|
|-0----0-0-0------0----0-0-0------------------0----0-0-0----|
|-------------------------------3----3-3-3------------------|

                                              (2 TIMES)
|-----------------------------------------------------|
|-----------------------------------------------------|
|-0-00-0-0-0-0--------------0-00-0-0-0-0--------------|
|---------------3-3-3--3-3----------------3-3-3--3-3--|




 FIG 1                                   (6 TIMES)
|------------------------------------------------|
|---------------------------------------5----75--|
|--------------------------5-7----8-7-----8----8-|
|-5-7-8---7-5---7-8------8-----------------------|


 FIG 2               (4 TIMES)
|----------------------------|
|----------------------------|
|-0-00--0--0-0-0-0-----------|
|--------------------0-00-0--|
Comments