Rotting Christ - Saturn Unlock Aveys Son Chords & Tabs

 

Saturn Unlock Aveys Son Chords & Tabs

Rotting Christ Chords & Tabs

Version: 1 Type: Tab 0 ratings
1 star 2 stars 3 stars 4 stars 5 stars
comments

Saturn Unlock Aveys Son Tab

   
 SATURN UNLOCK AVEY'S SON-ROTTING CHRIST
  TAB BY nikos Phantomlord Economakis mike_eco@ergodata.gr
   A splendid tune ,from their second album NON SERVIAM.The definition of
   greek black metal.The structure is very easy to find out
   riff 1
  G ---11--12--/5-4-2--/7--4---4-5--2-4
  D -----------------------------------
  A -----------------------------------
  E -----------------------------------

 FILL 1
  D --10--9--9--7--7--12--9--9--10--9--7
  A ------------------------------------
  E ------------------------------------

 VERSE RIFF
  D ----9--10--10--9--9---7--5H7--------
      Am (muteD)

  D ----9--10--10--5--5---5--9H-10-H12--
     Am            Gm

  D ----9--10--10--9--9---7--5H7---------
      Am

  D ---4H5-5--4---5P4---5P4-4H5-5H7------
     Cm           Dm

 RIFF 3
 A --[:---5/7---2--2--0h2h3--2--0--3--2-0-:]-----5---5--3--2--0--7----7/10
                .  .  .      .  .  .  . .
     Em                                         Dm              Em    Gm
[ Tab from: http://www.guitartabs.cc/tabs/r/rotting_christ/saturn_unlock_aveys_son_tab.html ]
 RIFF4                               *not sure about that note
 ---------------------------------------------------
 ---------------------------------------------------
 ---------------------------------------------------
 --2--2--2--2---------------------4--2--------------
 --2--2--2--2------2--~5-----5----------3--5H7P5H7--
 --0--0--0--0---------------------------------------
   [MANY CHORDS]    ~:  VERY STRONG VIBRATO
  
 PLAY THAT 3 TIMES AND THE FOURTH STRUM CHORDS Cm Bm Dm

 RIFF 5(The  one)
 ----------------------------------------------------
 ----------------------------------------------------
 ----------------------------------------------------
 ----------------------------------------------------
 ------3--2------3--2-----3--2--3--2----0------3~-5~-
 ------------------------------------3---------------
 Em     Fbm   Em   Fb5 Gm              Am     Cm Dm(Chords are strummed)

 RIFF 6
 ----------------------------------------------
 ----------------------------------------------
 ----9--7--------------------------------------
 --------7--9-------------10--9--7--12--9------
 --7----------------8--------------------------
 ----------------------------------------------
  Em              Fb5
  (aLL NOTES ARE WITH TREMOLO PICK)
Comments