Rotting Christ - Khronos Chords & Tabs

 

Khronos Chords & Tabs

Rotting Christ Chords & Tabs

Version: 1 Type: Tab 0 ratings
1 star 2 stars 3 stars 4 stars 5 stars
comments

Khronos Tab

   
Band:  ROTTING CHRIST
Album: Khronos 666
Song:  Khronos

Transcribed by:	Chris Humeniuk
Email:  father_death_666@hotmail.com

Tuning:	Standard

Keys:
 ___ - palm mute
  h  - hammer on
 / \ - slide
  x  - mute
  "  - tremelo pick
 < > - pinch harmonic


INTRO:

|--------------------------------|
|--------------------------------|
|--------------------------------|
|-3-3-3--3-3-3------3-3-3--3-3-3-|
|-3-3-3--3-3-3------3-3-3--3-3-3-|
|-1-1-1--1-1-1------1-1-1--1-1-1-| 4x


CHORUS a:

NOTE - I can barely hear Gtr 2 for the Chorus' so what i put down
	is basically my own riff that works w/it...it might be close...

(Gtr 1)
|-------------------------|     |-------------------------|
|-------------------------|     |-------------------------|
|-2-2-2-2-2-2-------------|     |-2-2-2-2-2-2---4/5---5/7-|
|-2-2-2-2-2-2-3-3-3-3-3-3-|     |-2-2-2-2-2-2---4/5---5/7-|
|-0-0-0-0-0-0-3-3-3-3-3-3-|     |-0-0-0-0-0-0---2/3---3/5-|
|-------------1-1-1-1-1-1-| 3x  |-------------0-----0-----|
                                              _     _

(Gtr 2)
|-------------------------|     |-------------------------|
|-------------------------|     |-------------------------|
|-9-----7-----5-----------|     |-9-----7-------4/5---5/7-|
|---7-----7-----7---7-5h7-|     |---7-----7-----x-----x---|
|-----0-----0-----0-------|     |-----0-----0---2/3---3/5-|
|-------------------------| 3x  |-------------0-----0-----|
  ___________________             _____________     _

(Gtr 1)
|-------------------------|     |------------------------------------------|
|-------------------------|     |------------------------------------------|
|-2-2-2-2-2-2-------------|     |-2-2-2-2-2-2---4/5---5/7-2----------------|
|-2-2-2-2-2-2-3-3-3-3-3-3-|     |-2-2-2-2-2-2---4/5---5/7-2----------------|
|-0-0-0-0-0-0-3-3-3-3-3-3-|     |-0-0-0-0-0-0---2/3---3/5-0----------------|
|-------------1-1-1-1-1-1-| 3x  |-------------0-----0----------------------|
                                              _     _

(Gtr 2)
|-------------------------|     |------------------------------------------|
|-------------------------|     |------------------------------------------|
|-9-----7-----5-----------|     |-9-----7-------4/5---5/7------------------|
|---7-----7-----7---7-5h7-|     |---7-----7-----x-----x---7----------------|
|-----0-----0-----0-------|     |-----0-----0---2/3---3/5------------------|
|-------------------------| 3x  |-------------0-----0----------------------|
  ___________________             _____________     _


INTRO - 3x


CHORUS b:

NOTE - play the following 6x

(Gtr 1)
|-------------------------|     |-------------------------|
|-------------------------|     |-------------------------|
|-2-2-2-2-2-2-------------|     |-2-2-2-2-2-2---4/5---5/7-|
|-2-2-2-2-2-2-3-3-3-3-3-3-|     |-2-2-2-2-2-2---4/5---5/7-|
|-0-0-0-0-0-0-3-3-3-3-3-3-|     |-0-0-0-0-0-0---2/3---3/5-|
|-------------1-1-1-1-1-1-| 3x  |-------------0-----0-----|
                                              _     _

(Gtr 2)
|-------------------------|     |-------------------------|
|-------------------------|     |-------------------------|
|-9-----7-----5-----------|     |-9-----7-------4/5---5/7-|
|---7-----7-----7---7-5h7-|     |---7-----7-----x-----x---|
|-----0-----0-----0-------|     |-----0-----0---2/3---3/5-|
|-------------------------| 3x  |-------------0-----0-----|
  ___________________             _____________     _


RIFF a:

|----------------------------------------------------|
|----------------------------------------------------|
|---9------------------------------------------------|
|-----10-9------7-9-10-7-----7-9-10-7----------------|
|-0---------0-0----------8-0----------8-8/9\8-8/10\7-|
|----------------------------------------------------| 2x
  _         ___            _
[ Tab from: http://www.guitartabs.cc/tabs/r/rotting_christ/khronos_tab.html ]
(Gtr 1)
|----------------------------------------------------|
|----------------------------------------------------|
|---9------------------------------------------------|
|-----10-9------7-9-10-7-----7-9-10-7----------------|
|-0---------0-0----------8-0----------8-8/9\8-8/10\7-|
|----------------------------------------------------|
  _         ___            _

(Gtr 2)
|-------------------------------------------------------------|
|-------------------------------------------------------------|
|---9h10-9------9h10-9---------9h10-9-------------------------|
|----------------------10-10----------10-10-10/12-12-12/14-14-|
|-0---------0-0--------------0--------------------------------|
|-------------------------------------------------------------| 2x
  _         ___              _


CHORUS b - 2x


RIFF a


RIFF Ba:
(Gtr 1)
|---------------------|
|---------------------|
|-2"------------------|
|-2"------------5"----|
|-0"------------5"----|
|---------------3"----|

(Gtr 2)
|---------------------|
|---------------------|
|---------------------|
|---------------------|
|-0"------------------|
|---------------3"----| 4x
  ____________________


RIFF a


RIFF Bb:
(Gtr 1)
|---------------------|     |----------------------------------|
|---------------------|     |----------------------------------|
|-2"------------------|     |-2"-------------------------------|
|-2"------------5"----|     |-2"------------5"-----------------|
|-0"------------5"----|     |-0"------------5"------------<5>~-|
|---------------3"----| 7x  |---------------3"----3"-----------|
                                                  ________

(Gtr 2)
|---------------------|     |----------------------------------|
|---------------------|     |----------------------------------|
|---------------------|     |----------------------------------|
|---------------------|     |----------------------------------|
|-0"------------------|     |-0"--------------------------<5>~-|
|---------------3"----| 7x  |---------------3"-----------------|
  ____________________        ____________________________


OUTRO:
(Gtr 1)
|-------------------------|     |-------------------------|
|-------------------------|     |-------------------------|
|-2-2-2-2-2-2-------------|     |-2-2-2-2-2-2---4/5---5/7-|
|-2-2-2-2-2-2-3-3-3-3-3-3-|     |-2-2-2-2-2-2---4/5---5/7-|
|-0-0-0-0-0-0-3-3-3-3-3-3-|     |-0-0-0-0-0-0---2/3---3/5-|
|-------------1-1-1-1-1-1-| 3x  |-------------0-----0-----|
                                              _     _

(Gtr 2)
|-------------------------|     |-------------------------|
|-------------------------|     |-------------------------|
|-9-----7-----5-----------|     |-9-----7-------4/5---5/7-|
|---7-----7-----7---7-5h7-|     |---7-----7-----x-----x---|
|-----0-----0-----0-------|     |-----0-----0---2/3---3/5-|
|-------------------------| 3x  |-------------0-----0-----|
  ___________________             _____________     _

NOTE - play above 5x

(Gtr 1)
|-------------------------|     |------------------------------------------|
|-------------------------|     |------------------------------------------|
|-2-2-2-2-2-2-------------|     |-2-2-2-2-2-2---4/5---5/7-2----------------|
|-2-2-2-2-2-2-3-3-3-3-3-3-|     |-2-2-2-2-2-2---4/5---5/7-2----------------|
|-0-0-0-0-0-0-3-3-3-3-3-3-|     |-0-0-0-0-0-0---2/3---3/5-0----------------|
|-------------1-1-1-1-1-1-| 3x  |-------------0-----0----------------------|
                                              _     _

(Gtr 2)
|-------------------------|     |------------------------------------------|
|-------------------------|     |------------------------------------------|
|-9-----7-----5-----------|     |-9-----7-------4/5---5/7------------------|
|---7-----7-----7---7-5h7-|     |---7-----7-----x-----x---7----------------|
|-----0-----0-----0-------|     |-----0-----0---2/3---3/5------------------|
|-------------------------| 3x  |-------------0-----0----------------------|
  ___________________             _____________     _
Comments