Rotting Christ - Ira Incensus Chords & Tabs

 

Ira Incensus Chords & Tabs

Rotting Christ Chords & Tabs

Version: 1 Type: Tab 0 ratings
1 star 2 stars 3 stars 4 stars 5 stars
comments

Ira Incensus Tab

"Ira Incensus" - Rotting Christ
TAB by Thirdeye



RIFF A (During verses)
E|-------------------------------------------------------------------
B|-------------------------------------------------------------------
G|-------------------------------------------------------------------
D|--7-7-7-7-7-7-7-7-7-7-7-7-7-7-7-2-2-2-2-2-2-2-2-2-2-2-2-2-2-2-2----
A|--7-7-7-7-7-7-7-7-7-7-7-7-7-7-7-2-2-2-2-2-2-2-2-2-2-2-2-2-2-2-2----
E|--5-5-5-5-5-5-5-5-5-5-5-5-5-5-5-0-0-0-0-0-0-0-0-0-0-0-0-0-0-0-0----
    - - - - - - - - - - - - - - - - - - - - - - - - - - - - - - - p.m
[ Tab from: http://www.guitartabs.cc/tabs/r/rotting_christ/ira_incensus_tab.html ]
E|-------------------------------------------------------------------
B|-------------------------------------------------------------------
G|-------------------------------------------------------------------
D|--7-7-7-7-7-7-7-7-5-5-5-5-5-5-5-7-2-2-2-2-2-2-2-2-2-2-2-2-2-2-2-2--
A|--7-7-7-7-7-7-7-7-5-5-5-5-5-5-5-7-2-2-2-2-2-2-2-2-2-2-2-2-2-2-2-2--
E|--5-5-5-5-5-5-5-5-3-3-3-3-3-3-3-5-0-0-0-0-0-0-0-0-0-0-0-0-0-0-0-0--
    - - - - - - - - - - - - - - - - - - - - - - - - - - - - - - - - p.m

         |classical guitar           |
E|-------------------------------------------------------------------
B|-------7--7-8-7-5--------------------------------------------------
G|------------------7-5-4h5p4--4-7-----------------------------------
D|--2-2----------------------------4-5-------------------------------
A|--2-2--------------------------------------------------------------
E|--0-0--------------------------------------------------------------
Comments