Rotting Christ - Fateless Chords & Tabs

 

Fateless Chords & Tabs

Rotting Christ Chords & Tabs

Version: 1 Type: Tab 0 ratings
1 star 2 stars 3 stars 4 stars 5 stars
comments

Fateless Tab

   
Band:  ROTTING CHRIST
Album: Khronos 666
Song:  Fateless

Transcribed by:	Chris Humeniuk
Email:  father_death_666@hotmail.com

Tuning:	Standard

Keys:
 ___ - palm mute
 / \ - slide
  p  - pull off
  h  - hammer on
 x\\ - pick scrape
 < > - pinch harmonic


INTRO:

|--------------------------------------------------------------|
|--------------------------------------------------------------|
|--------------------------------------------------------------|
|--------------------------------------------------------------|
|-2-2-2-2--2-2-2-2--2-2-2-2-2-2-2-2--2-2-2-2--2-2-2-2-2-2-2-2--|
|-0-0-0-0--0-0-0-0--0-0-0-0-0-0-0-0--0-0-0-0--0-0-0-0-0-0-0-0--|
  _______  _______  _______________  _______  _______________

 --------------------------------------------------|     |---|
 --------------------------------------------------|     |---|
 --------------------------------------------------|     |---|
 --------------------------------------------------|     |-2-|
 -2-2-2-2--2-2-2-2-5-5-5-5-5-5-0-0-0-0-0-0-0-0-0-0-|     |-2-|
 -0-0-0-0--0-0-0-0---------------------------------| 2x  |-0-|
  _______  _______________________________________


RIFF Aa:
(Gtr 1)
|--------------------------------------------------------------------|
|--------------------------------------------------------------------|
|--------------------------------------------------------------------|
|--------------------------------------------------------------------|
|--------------------------------------------------------------------|
|-0-0-0-0-0-0-0-0--0-0-0-0-0-0-0-0--0-0-0-0-0-0-0-0--0-0-0-0-0-0-0-0-|
  __________________________________________________________________

 --------------------------------------------------------------------|
 --------------------------------------------------------------------|
 --------------------------------------------------------------------|
 --------------------------------------------------------------------|
 --------------------------------------------------------------------|
 -3-3-3-3-3-3-3-3--3-3-3-3-3-3-3-3--5-5-5-5-5-5-5-5--5-5-5-5-5-5-5-5-| 4x
  __________________________________________________________________

(Gtr 2)
|-------------------------------------------|
|-17-----------17--------17-------17--------|
|-----16----------16--------16-------16-----|
|--------17/19-------17--------17-------17--|
|-------------------------------------------|
|-------------------------------------------|

 -----------------------------------------------|
 -17-----------17-------------------------------|
 -----16-------------19--17--16--17p16-17p16----|
 --------17/19----17-------------------------17-|
 -----------------------------------------------|
 -----------------------------------------------| 3x

|-------------------------------------------|
|-17-----------17--------17-------17--------|
|-----16----------16--------16-------16-----|
|--------17/19-------17--------17-------17--|
|-------------------------------------------|
|-------------------------------------------|

 -------------------------------------------------------------------|
 -17-----------17---------------------------------------------------|
 -----16-------------16h17-16h17-16h17-16h17p16--17p16-17p16--------|
 --------17/19----17-----------------------------------------17-----|
 -------------------------------------------------------------------|
 -------------------------------------------------------------------|

(Gtr 1)
|-------------------------------------------------------------|
|-------------------------------------------------------------|
|-------------------------------------------------------------|
|-2-----------------------------------------------------------|
|-2--------------------------------------------x\\------------|
|-0-----------------------------------------------------------|

(Gtr 2)
 -------------------------------------------------------------|
 -------------------------------------------------------------|
 -------------------------------------------------------------|
 -(17)----------------------14----------------x\\-------------|
 -------------------------------------------------------------|
 -------------------------------------------------------------|


INTRO


RIFF Ab:
(Gtr 1)
|--------------------------------------------------------------------|
|--------------------------------------------------------------------|
|--------------------------------------------------------------------|
|--------------------------------------------------------------------|
|--------------------------------------------------------------------|
|-0-0-0-0-0-0-0-0--0-0-0-0-0-0-0-0--0-0-0-0-0-0-0-0--0-0-0-0-0-0-0-0-|
  __________________________________________________________________

 --------------------------------------------------------------------|
 --------------------------------------------------------------------|
 --------------------------------------------------------------------|
 --------------------------------------------------------------------|
 --------------------------------------------------------------------|
 -3-3-3-3-3-3-3-3--3-3-3-3-3-3-3-3--5-5-5-5-5-5-5-5--5-5-5-5-5-5-5-5-| 4x
  __________________________________________________________________

(Gtr 2)
|-------------------------------------------|
|-17-----------17--------17-------17--------|
|-----16----------16--------16-------16-----|
|--------17/19-------17--------17-------17--|
|-------------------------------------------|
|-------------------------------------------|

 -----------------------------------------------|
 -17-----------17-------------------------------|
 -----16-------------19--17--16--17p16-17p16----|
 --------17/19----17-------------------------17-|
 -----------------------------------------------|
 -----------------------------------------------| 4x

(Gtr 1)
|---------------------------------------------------------------------|
|---------------------------------------------------------------------|
|---------------------------------------------------------------------|
|---------------------------------------------------------------------|
|---------------------------------------------------------------------|
|-1-1-1-1-1-1-1-1--1-1-1-1-1-1-1-1--3-3-3-3-3-3-3-3--3-3-3-3-3-3-3-3--|
  __________________________________________________________________
[ Tab from: http://www.guitartabs.cc/tabs/r/rotting_christ/fateless_tab.html ]
 --------------------------------------------------------------------|
 --------------------------------------------------------------------|
 --------------------------------------------------------------------|
 -----------------------------------7-7-7-7-7-7-7-7--7-7-7-7-7-7-7-7-|
 -----------------------------------7-7-7-7-7-7-7-7--7-7-7-7-7-7-7-7-|
 -5-5-5-5-5-5-5-5--5-5-5-5-5-5-5-5--5-5-5-5-5-5-5-5--5-5-5-5-5-5-5-5-|
  ________________________________

(Gtr 2)
 --------------------------------------------------------------------|
 --------------------------------------------------------------------|
 --------------------------------------------------------------------|
 -(17)------------------------------x\\------------------------------|
 --------------------------------------------------------------------|
 --------------------------------------------------------------------|


RIFF Ba:
(Gtr 1)
|---------------------------------------------------------------|
|---------------------------------------------------------------|
|---------------------------------------------------------------|
|-7/9-----7/9-<9>~------7/9-----5/7-----5/7-----4/5-------------|
|-5/7-7-7-5/7-------7-7-5/7-5-5-3/5-5-5-3/5-5-5-2/3-3-3-3-3-3-3-|
|---------------------------------------------------------------|
      ___           ___     ___     ___     ___     ___________

(Gtr 2)
|---------------------------------------------------------------|
|-------------<12>~---------------------------------------------|
|-7h9-----7/9-----------7h9-----5h7-----5h7-----4h5-------------|
|---------------------------------------------------5-5-5-5-5-5-|
|-----7-7-----------7-7-----5-5-----5-5-----5-5-----3-3-3-3-3-3-|
|---------------------------------------------------------------| 4x
      ___           ___     ___     ___     ___     ___________

(Gtr 1)
|---------------------------------------|
|---------------------------------------|
|-5----------------5----------5------7--|
|-5----------------5----------5------5--|
|-3----------------3------3-3-3--5-5-5--|
|-3--------0-0-0-0-3--------------------|
           _______        ___    ___

(Gtr 2)
|---------------------------------------|
|-<12>------------<12>------------------|
|---------------------------------------|
|---------------------------------------|
|---------------------------------------|
|---------------------------------------|


RIFF Ac:
(Gtr 1)
|--------------------------------------------------------------------|
|--------------------------------------------------------------------|
|--------------------------------------------------------------------|
|--------------------------------------------------------------------|
|--------------------------------------------------------------------|
|-0-0-0-0-0-0-0-0--0-0-0-0-0-0-0-0--0-0-0-0-0-0-0-0--0-0-0-0-0-0-0-0-|
  __________________________________________________________________

 --------------------------------------------------------------------|
 --------------------------------------------------------------------|
 --------------------------------------------------------------------|
 --------------------------------------------------------------------|
 --------------------------------------------------------------------|
 -3-3-3-3-3-3-3-3--3-3-3-3-3-3-3-3--5-5-5-5-5-5-5-5--5-5-5-5-5-5-5-5-| 2x
  __________________________________________________________________

(Gtr 2)
|-------------------------------------------|
|-17-----------17--------17-------17--------|
|-----16----------16--------16-------16-----|
|--------17/19-------17--------17-------17--|
|-------------------------------------------|
|-------------------------------------------|

 -----------------------------------------------|
 -17-----------17-------------------------------|
 -----16-------------19--17--16--17p16-17p16----|
 --------17/19----17-------------------------17-|
 -----------------------------------------------|
 -----------------------------------------------| 2x

(Gtr 1)
|---------------------------------------------------------------------|
|---------------------------------------------------------------------|
|---------------------------------------------------------------------|
|---------------------------------------------------------------------|
|---------------------------------------------------------------------|
|-1-1-1-1-1-1-1-1--1-1-1-1-1-1-1-1--3-3-3-3-3-3-3-3--3-3-3-3-3-3-3-3--|
  __________________________________________________________________

 --------------------------------------------------------------------|
 --------------------------------------------------------------------|
 --------------------------------------------------------------------|
 -----------------------------------7-7-7-7-7-7-7-7--7-7-7-7-7-7-7-7-|
 -----------------------------------7-7-7-7-7-7-7-7--7-7-7-7-7-7-7-7-|
 -5-5-5-5-5-5-5-5--5-5-5-5-5-5-5-5--5-5-5-5-5-5-5-5--5-5-5-5-5-5-5-5-|
  ________________________________

(Gtr 2)
 --------------------------------------------------------------------|
 --------------------------------------------------------------------|
 --------------------------------------------------------------------|
 -(17)------------------------------x\\------------------------------|
 --------------------------------------------------------------------|
 --------------------------------------------------------------------|


RIFF Bb:
(Gtr 1)
|---------------------------------------------------------------|
|---------------------------------------------------------------|
|---------------------------------------------------------------|
|-7/9-----7/9-<9>~------7/9-----5/7-----5/7-----4/5-------------|
|-5/7-7-7-5/7-------7-7-5/7-5-5-3/5-5-5-3/5-5-5-2/3-3-3-3-3-3-3-|
|---------------------------------------------------------------|
      ___           ___     ___     ___     ___     ___________

(Gtr 2)
|---------------------------------------------------------------|
|-------------<12>~---------------------------------------------|
|-7h9-----7/9-----------7h9-----5h7-----5h7-----4h5-------------|
|---------------------------------------------------5-5-5-5-5-5-|
|-----7-7-----------7-7-----5-5-----5-5-----5-5-----3-3-3-3-3-3-|
|---------------------------------------------------------------| 8x
      ___           ___     ___     ___     ___     ___________

(Gtr 1)
|---------------------------------------|
|---------------------------------------|
|-5----------------5----------5------7--|
|-5----------------5----------5------5--|
|-3----------------3------3-3-3--5-5-5--|
|-3--------0-0-0-0-3--------------------|
           _______        ___    ___

(Gtr 2)
|---------------------------------------|
|---------------------------------------|
|-12--------------12--------------------|
|---------------------------------------|
|---------------------------------------|
|---------------------------------------|


INTRO
Comments