Rotting Christ - Among Two Storms Chords & Tabs

 

Among Two Storms Chords & Tabs

Rotting Christ Chords & Tabs

Version: 1 Type: Tab 0 ratings
1 star 2 stars 3 stars 4 stars 5 stars
comments

Among Two Storms Tab

Submited By George Tampakidis

---------------------|------------------------|-------------------------------
---------------------|------------------------|-------------------------------
---------------------|------------------------|-------------------------------
---------10-10----9-9|--7-5-5---3-3---2-0----2|-------------------------------
--0-0----------------|--------------------3---|-------------------------------
---------------------|------------------------|-------------------------------
Intro-Riff 1 x16

------------------|------------------|----------------------------|---------|-
--------1---------|----------5-------|---8--66-55------8--66-55---|---------|-
-2----2----2------|--5----5----5-----|-------------7-------------7|-10--12--|-
-2----2-------2---|--5----5------5---|---7-------------7----------|-10--12--|-
-0----0-----------|--3----3----------|---5-------------5----------|-8---10--|-
------------------|------------------|----------------------------|---------|-
   Riff 2 x2

--------------------|------------------------|--------------------------------
--------------------|------------------------|--------------------------------
--------------------|------------------------|--------------------------------
---------10-10---9-9|--7-5-5---3-3---2-0----2|--------------------------------
--0-0---------------|--------------------3---|--------------------------------
--------------------|------------------------|--------------------------------
   Riff 1 x8

-----------------|-----------------|---------------------------|------------|-
-------1---------|---------5-------|--8--66-55------8--66-55---|------------|-
-2---2----2------|--5---5----5-----|------------7-------------7|-10----12---|-
-2---2-------2---|--5---5------5---|--7-------------7----------|-10----12---|-
-0---0-----------|--3---3----------|--5-------------5----------|-8-----10---|-
-----------------|-----------------|---------------------------|------------|-
  Riff 2 x2

--------------------------------|---------------------------------------------
--------------------------------|---------------------------------------------
--2----2------------------------|---------------------------------------------
--2----2--2-2-2----5----5-------|---------------------------------------------
--0----0--0-0-0----5-5--5--5-5-5|---------------------------------------------
-------------------3-3--3--3-3-3|---------------------------------------------
  Riff 3 x4

------------------|-----------------------------------------------------------
------------------|-----------------------------------------------------------
--2---------------|-----------------------------------------------------------
--2----2-5----3---|-----------------------------------------------------------
--0----0-5---53--3|-----------------------------------------------------------
---------3---31--1|-----------------------------------------------------------
  Riff 4  x4
[ Tab from: http://www.guitartabs.cc/tabs/r/rotting_christ/among_two_storms_tab.html ]
---------------|-----------------|--------------------------|------------|----
-------1-------|--------5--------|--8--66-55-----8--66-55---|------------|----
-2---2---2-----|--5---5---5------|------------7------------7|-10----12---|----
-2---2-----2---|--5---5------5---|--7------------7----------|-10----12---|----
-0---0---------|--3---3----------|--5------------5----------|-8-----10---|----
---------------|-----------------|--------------------------|------------|----
Riff 2   x4.END

----5-7-8-7---5-7--------5-7-8-7---5-7--|--8-7-5-8-7-5-8-7-5-8-7-5-8-7-5-8-7--
------------------5--------------------5|-------------------------------------
----------------------------------------|-------------------------------------
----------------------------------------|-------------------------------------
----------------------------------------|-------------------------------------
----------------------------------------|-------------------------------------
SOLO                                      triplets feeling

-5-8-7-5-8-7-5-8-7-5-8--7-5-8-7-5-8-7-5-8-7-5-8-7-5|-10-8-7-10-8-7-10-8-7-10--
---------------------------------------------------|--------------------------
---------------------------------------------------|--------------------------
---------------------------------------------------|--------------------------
---------------------------------------------------|--------------------------
---------------------------------------------------|--------------------------


-8-7-10-8-7-10-8-7-10-8-7-10-8-7-10-8-7-10-8-7-10-8-7-10-8-7-10-8-7-10-8-7|---
--------------------------------------------------------------------------|---
--------------------------------------------------------------------------|---
--------------------------------------------------------------------------|---
--------------------------------------------------------------------------|---
--------------------------------------------------------------------------|---


-12-10-8-12-10-8-12-10-8-12-10-8-12-10-8-12-10-8-12-10-8-12-10-8-12-10-8-12---
------------------------------------------------------------------------------
------------------------------------------------------------------------------
------------------------------------------------------------------------------
------------------------------------------------------------------------------
------------------------------------------------------------------------------


-10-8-12-10-8-12-10-8-12-10-8-12-10-8|---------8--12---8-12---|--------8-12---
-------------------------------------|--8--10---------------10|-8--10---------
-------------------------------------|------------------------|---------------
-------------------------------------|------------------------|---------------
-------------------------------------|------------------------|---------------
-------------------------------------|------------------------|---------------


-8-12-----|--------------------|--------------------|-----------------------|-
-------10-|--8-8---6-6---5-5---|--8-8---6-6---5-5---|-8-8---6-6---5-5-------|-
----------|-------------------7|-------------------7|------------------7----|-
----------|--------------------|--------------------|-----------------------|-
----------|--------------------|--------------------|-----------------------|-
----------|--------------------|--------------------|-----------------------|-


--------------------|----------------------|----------------------------------
--8-8---6-6---5-5---|----------------------|----------------------------------
-------------------7|------5-7b--7b-5------|----------------------------------
--------------------|-5-7-------------7-5-7|----------------------------------
--------------------|----------------------|----------------------------------
--------------------|----------------------|----------------------------------
                          solo END.
Comments