Rossini Gioacchino - William Tell Overture Chords & Tabs

 

William Tell Overture Chords & Tabs

Rossini Gioacchino Chords & Tabs

Version: 1 Type: Tab 1 rating
1 star 2 stars 3 stars 4 stars 5 stars
comments

William Tell Overture Tab

   
William Tell Overture (Finale) - Gioacchino Rossini
Tabbed by springwaffle

2/4 time
The spacing is (for the most part): 
1 dash (-) = sixteenth note (1/4 beat)
2 dashes = eighth note (1/2 beat)
3 dashes = quarter note (1 beat)
4 dashes = dotted quarter (1 1/2 beat)
6 or more = half note (2 beats) or more

Song order: I II III II IV V IV III II VI

  I                                                
e-------------------------------0---------------0---------------------------
b-0---0-0-0---0-0-0-------0---0---0-------0---0---0---0-0-0---0-0-0---0-0-0-
g-------------------1---1---1-------1---1---1-------------------------------
d---------------------2---------------2-------------------------------------
a---------------------------------------------------------------------------
e---------------------------------------------------------------------------

e----------------------------------------------------------------
b-0-0-0--0-0-0--0--0--0-0-0--0--0--0-0-0--0--0--0-0-0--0--0------
g----------------------------------------------------------------
d----------------------------------------------------------------
a----------------------------------------------------------------
e----------------------------------------------------------------

  II
e-------------------------------------------------------
b-------------------------------------------------------
g-------------------------1----------------1-1----------
d-------------------2--4----------------2------4--1-----
a-2-2-2--2-2-2--2-2----------2-2-2--2-2--------------2--
e-------------------------------------------------------

e----------------------------------------------------
b----------------------------------------------------
g-------------------------1----1-4----2-1------1-----
d-------------------2--4-----2------------4-2-----2--
a-2-2-2--2-2-2--2-2----------------------------------
e----------------------------------------------------

e-------------------0--2--4-------------0--4-4-2--------
b-0-0-0--0-0-0--0-0----------0-0-0--0-0-----------4--0--
g-------------------------------------------------------
d-------------------------------------------------------
a-------------------------------------------------------
e-------------------------------------------------------
                                         
e-------------------0--2--4--0-4-7----5-4------4-----
b-0-0-0--0-0-0--0-0-----------------------7-5-----5--
g----------------------------------------------------
d----------------------------------------------------
a----------------------------------------------------
e----------------------------------------------------
                       not played last time ^  ^  ^
  III 
e|-----------------------9-----9-----9-----------------
b|*-9-9-9--9-9-9--9-9-9-----9-----9-----9--7-----------
g|--------------------------------------------9--8--6--
d|-----------------------------------------------------
a|*----------------------------------------------------
e|-----------------------------------------------------
  ____________________________________________________
 | 1
e----------------------9-----9-----9--7--6--7--6--7---|
b-9-9-9--9-9-9--9-9-9-----9-----9--------------------*|
g-----------------------------------------------------|
d-----------------------------------------------------|
a----------------------------------------------------*|
e-----------------------------------------------------|
  ____________________________________________________
 | 2
e----------------------9-----9-----9--7--6--7---------
b-9-9-9--9-9-9--9-9-9-----9-----9--------------0-0-0--
g-----------------------------------------------------
d-----------------------------------------------------
a-----------------------------------------------------
e-----------------------------------------------------

e------------------------------------------------
b------------------------------------------------
g---------------1--2------2--1------1------------
d-4-4-4--4-4-4--------4---------2------4---------
a-----------------------------------------2-2-2--
e------------------------------------------------

e-2-2-2--2-2-2--4--5--2---5--4--0---4--2---------
b-----------------------------------------0-0-0--
g------------------------------------------------
d------------------------------------------------
a------------------------------------------------
e------------------------------------------------
[ Tab from: http://www.guitartabs.cc/tabs/r/rossini_gioacchino/william_tell_overture_tab.html ]
  IV
e|--------0--0-0-0--0--4----2--0-----0-------------------0-
b|*-0-2-4-------------------------4-----2--0-2-0-2-0-2-4---
g|---------------------------------------------------------
d|---------------------------------------------------------
a|*--------------------------------------------------------
e|---------------------------------------------------------
  _________________________________________________________
 | 1
e------------------------------------------------------------|
b-------------2-4-------------0-2---------------------------*|
g-2-4-2-4-2-4-----1-2-1-2-1-2-------1---1---1---1---1--------|
d---------------------------------4---4---4---4---4---4-1----|
a---------------------------------------------------------2-*|
e------------------------------------------------------------|
  _________________________________________________________
 | 2
e-----------------------------------------------------------
b-------------2-4-------------0-2---------------------------
g-2-4-2-4-2-4-----1-2-1-2-1-2-------1---1---2-1-------------
d---------------------------------4---4---4-----4-2-----2---
a----------------------------------------------------2------
e-----------------------------------------------------------
                                only played 2nd time ^  ^
  V
e--------------------------------------------------------------------
b-2----1-2-1-4-2-0-------------------------------------------2-2-2-2-
g------------------2-2-1-----------------------------------1---------
d------------------------2-----------2-1-----------------2-----------
a--------------------------4-4-4-4-4-----3-------------4-------------
e------------------------------------------4-4-4-4-4-4---------------

e-----------------------------------------------------------0-----
b-2-1-2-1-4-2-0-------------------------------------------2---4-2-
g---------------2-2-1-----------------------------------1---------
d---------------------2-----------2-1-----------------2-----------
a-----------------------4-4-4-4-4-----3-------------4-------------
e---------------------------------------4-4-4-4-4-4---------------

e-----------4-0-------------4-0-----------------------------------
b-4-1-----------2-4-1-----------2-4-0-----------------------------
g-----1-1-1-----------1-1-1-----------1-1-3-0-----1-0-1-0-1-2-1---
d---------------------------------------------1-1---------------4-
a-----------------------------------------------------------------
e-----------------------------------------------------------------

e|------------------------------------4-2-0---2-0-------------0-2-4-
b|*---------------------------------0-------4-----2-0-2-0-2-4-------
g|------------------1-------1---2-----------------------------------
d|--2-------2---4-----2-1-2---2---4---------------------------------
a|*---2-1-2---2---2-------------------------------------------------
e|------------------------------------------------------------------
  _______________________________________________________________
 | 1
e-------------0-2---------------0----------------------------------|
b---0---0-2-4-------------0-2-4-----------------------------------*|
g-2---2-----------1-2-1-2-----------1---1---1---1---1--------------|
d---------------------------------4---4---4---4---4---4-1-------1--|
a---------------------------------------------------------2-3-4---*|
e------------------------------------------------------------------|
  _________________________________________________________
 | 2
e-------------0-2---------------0---------------------------
b---0---0-2-4-------------0-2-4-----2-1-2-4-2---------------
g-2---2-----------1-2-1-2---------------------2---------1-2-
d---------------------------------4-------------4-2-2-4-----
a-----------------------------------------------------------
e-----------------------------------------------------------

  VI
e|--------------------------------4-5------|--4-----------5----|
b|*---------------------4-5-4-5-7---------*|*-----4---5-------*|
g|--------------4-6-4-6--------------------|-------------------|
d|----4-6-7-6-7----------------------------|-------------------|
a|*-7-------------------------------------*|*-----------------*|
e|-----------------------------------------|-------------------|

e-3---------------4---------------4---------------6------3-----3--
b--------5-----5---------5-----5---------6-----6------------5-----
g-----------5---------------4---------------6---------------------
d-----------------------------------------------------------------
a-----------------------------------------------------------------
e-----------------------------------------------------------------

e-7--6--5--4---------------------------------------|-----------
b-------------7--5--4-----------------------------*|-----------
g----------------------6--4------------------------|-----------
d----------------------------8--7--6--4--------4---|-----------
a----------------------------------------7--6-----*|-7-6-7-6-7-
e--------------------------------------------------|-----------
                             go to beginning of VI ^

e-------------------0--2--4--------------------4--5--7--
b-0-0-0--0-0-0--0-0----------0-0-0--0-0-0--0-0----------
g-------------------------------------------------------
d-------------------------------------------------------
a-------------------------------------------------------
e-------------------------------------------------------

e-0--2--4-------------
b-------------------0-
g-------------1--2----
d---------------------
a---------------------
e---------------------
                                                     E     B7   x8
e----------------------------------------------11-|--12-11-14-11--|
b-------------------------------------12-13-14----|*-------------*|
g-------------------------12-13-14-15-------------|---------------|
d-------------13-14-15-16-------------------------|---------------|
a-14-15-16-17-------------------------------------|*-------------*|
e-------------------------------------------------|---------------|

e-12--12-12-12--7--7-7-7--4--4-4-4--0--0-0-0--0--0-0-0-
b------------------------------------------------------
g------------------------------------------------------
d------------------------------------------------------
a------------------------------------------------------
e------------------------------------------------------

e------------------------------------------------------
b-0--0-0-0----------------------------------------0----
g-----------1--1-1-1------------------------1--------1-
d---------------------2--2-2-2--2-----2--------2-------
a----------------------------------2-----2-------------
e------------------------------------------------------

e-0-----0-----4--0--7--4--12---12-12-12--12--12--12--12---12-12--------
b----0-----0-----------------------------------------------------------
g----------------------------------------------------------------------
d-----------------------------------------------------------------2-2--
a----------------------------------------------------------------------
e----------------------------------------------------------------------

Corrections/comments/etc. can be sent to: springwaffle@comcast.net
Comments