Ross Buchanan - Story Teller Chords & Tabs

 

Story Teller Chords & Tabs

Ross Buchanan Chords & Tabs

Version: 1 Type: Tab 0 ratings
1 star 2 stars 3 stars 4 stars 5 stars
comments

Story Teller Tab

   
The tab for my first single 'Story Teller' off the 'Summer/ Winter EP'
TWITTER: @ROSSABUCHANAN
iTunes: https://itunes.apple.com/gb/album/summer-winter-ep/id576467531

Listen to the track yourself and work out the strumming pattern cause it just looks 
confusing when you've got up and down strokes. But it's fairly simple anyway, give it a bash.

Tuning: D A D G B D
Capo: 7th Fret

Introduction

d |--0-0-0-0-0-0-0-0-0-0-0-0-0-0-0-0-0-0-0-0-0-0-0-0-0-0-0-0-0-0-0-0|
B |--0-0-0-0-0-0-0-0-0-0-0-0-0-0-0-0-0-0-0-0-0-0-0-0-0-0-0-0-0-0-0-0|
G |--4-4-4-4-0-0-4-4-4-4-4-4-0-0-4-4-4-4-4-4-0-0-4-4-4-4-4-4-0-0-4-4|  x2
D |--0-0-0-0-0-0-0-0-0-0-0-0-0-0-0-0-0-0-0-0-0-0-0-0-0-0-0-0-0-0-0-0|
A |--0-0-0-0-0-0-0-0-0-0-0-0-0-0-0-0-0-0-0-0-0-0-0-0-0-0-0-0-0-0-0-0|
D |--5-5-5-5-5-5-5-5-4-4-4-4-4-4-4-4-2-2-2-2-2-2-2-2-4-4-4-4-4-4-4-4|

First verse  "You're a top class fella..."

d |--0-0-0-0-0-0-0-0-0-0-0-0-0-0-0-0-0-0-0-0-0-0-0-0-0-0-0-0-0-0-0-0|
B |--0-0-0-0-0-0-0-0-0-0-0-0-0-0-0-0-0-0-0-0-0-0-0-0-0-0-0-0-0-0-0-0|
G |--4-4-4-4-4-4-4-4-4-4-4-4-4-4-4-4-4-4-4-4-4-4-4-4-4-4-4-4-4-4-4-4|  x1
D |--0-0-0-0-0-0-0-0-0-0-0-0-0-0-0-0-0-0-0-0-0-0-0-0-0-0-0-0-0-0-0-0|
A |--0-0-0-0-0-0-0-0-0-0-0-0-0-0-0-0-0-0-0-0-0-0-0-0-0-0-0-0-0-0-0-0|
D |--5-5-5-5-5-5-5-5-5-5-5-5-5-5-5-5-4-4-4-4-4-4-4-4-4-4-4-4-4-4-4-4|

                   "You make it seem like the first time..."

d |--0-0-0-0-0-0-0-0-0-0-0-0-0-0-0-0-0-0-0-0-0-0-0-0-0-0-0-0-0-0-0-0|
B |--0-0-0-0-0-0-0-0-0-0-0-0-0-0-0-0-0-0-0-0-0-0-0-0-0-0-0-0-0-0-0-0|
G |--4-4-4-4-4-4-4-4-4-4-4-4-4-4-4-4-4-4-4-4-4-4-4-4-4-4-4-4-4-4-4-4|
D |--0-0-0-0-0-0-0-0-0-0-0-0-0-0-0-0-0-0-0-0-0-0-0-0-0-0-0-0-0-0-0-0|
A |--0-0-0-0-0-0-0-0-0-0-0-0-0-0-0-0-0-0-0-0-0-0-0-0-0-0-0-0-0-0-0-0|
D |--2-2-2-2-2-2-2-2-2-2-2-2-2-2-2-2-4-4-4-4-4-4-4-4-4-4-4-4-4-4-4-4|

First verse cont. "I've got nothing to do..."

d |--0-0-0-0-0-0-0-0-0-0-0-0-0-0-0-0-0-0-0-0-0-0-0-0-0-0-0-0-0-0-0-0|
B |--0-0-0-0-0-0-0-0-0-0-0-0-0-0-0-0-0-0-0-0-0-0-0-0-0-0-0-0-0-0-0-0|
G |--4-4-4-4-4-4-4-4-4-4-4-4-4-4-4-4-4-4-4-4-4-4-4-4-4-4-4-4-0-0-4-4|  x4
D |--0-0-0-0-0-0-0-0-0-0-0-0-0-0-0-0-0-0-0-0-0-0-0-0-0-0-0-0-0-0-0-0|
A |--0-0-0-0-0-0-0-0-0-0-0-0-0-0-0-0-0-0-0-0-0-0-0-0-0-0-0-0-0-0-0-0|
D |--5-5-5-5-5-5-5-5-4-4-4-4-4-4-4-4-2-2-2-2-2-2-2-2-4-4-4-4-4-4-4-4|

Chorus.

C
You can make me laugh,
Em
And you can make me cry,
C ( finger position moved up 2 frets on all strings)
And you tell the words like they've just gone by,
C                                                             Em
And it seems to me, like every word you say is true,
C (finger position moved up 2 frets on all strings)
And I believe you

Bridge
[ Tab from: http://www.guitartabs.cc/tabs/r/ross_buchanan/story_teller_tab.html ]
d |--0-0-0-0-0-0-0-0-0-0-0-0-0-0-0-0-0-0-0-0-0-0-0-0-0-0-0-0-0-0-0-0|
B |--0-0-0-0-0-0-0-0-0-0-0-0-0-0-0-0-0-0-0-0-0-0-0-0-0-0-0-0-0-0-0-0|
G |--4-4-4-4-0-0-4-4-4-4-4-4-0-0-4-4-4-4-4-4-0-0-4-4-4-4-4-4-0-0-4-4|  x2
D |--0-0-0-0-0-0-0-0-0-0-0-0-0-0-0-0-0-0-0-0-0-0-0-0-0-0-0-0-0-0-0-0|
A |--0-0-0-0-0-0-0-0-0-0-0-0-0-0-0-0-0-0-0-0-0-0-0-0-0-0-0-0-0-0-0-0|
D |--5-5-5-5-5-5-5-5-4-4-4-4-4-4-4-4-2-2-2-2-2-2-2-2-4-4-4-4-4-4-4-4|

Second verse "And the faces, the way you describe those places..."

d |--0- Let ring for 8 beats--0- Let ring for 8 beats-----|
B |--0--------------------0-------------------------------|
G |--4--------------------4-------------------------------|
D |--0--------------------0-------------------------------|
A |--0--------------------0-------------------------------|
D |--5--------------------4-------------------------------|

d |--0- Let ring for 8 beats--0- Let ring for 8 beats-----|
B |--0--------------------0-------------------------------|
G |--0--------------------4-------------------------------|     x2
D |--4--------------------0-------------------------------|
A |--0--------------------0-------------------------------|
D |--2--------------------4-------------------------------|

Second verse cont. 'Then I'll realise my face is grinning..."

d |--0-0-0-0-0-0-0-0-0-0-0-0-0-0-0-0-0-0-0-0-0-0-0-0-0-0-0-0-0-0-0-0|
B |--0-0-0-0-0-0-0-0-0-0-0-0-0-0-0-0-0-0-0-0-0-0-0-0-0-0-0-0-0-0-0-0|
G |--4-4-4-4-4-4-4-4-4-4-4-4-4-4-4-4-4-4-4-4-4-4-4-4-4-4-4-4-0-0-4-4|  x2
D |--0-0-0-0-0-0-0-0-0-0-0-0-0-0-0-0-0-0-0-0-0-0-0-0-0-0-0-0-0-0-0-0|
A |--0-0-0-0-0-0-0-0-0-0-0-0-0-0-0-0-0-0-0-0-0-0-0-0-0-0-0-0-0-0-0-0|
D |--5-5-5-5-5-5-5-5-4-4-4-4-4-4-4-4-2-2-2-2-2-2-2-2-4-4-4-4-4-4-4-4|

Chorus

C
You can make me laugh,
Em
And you can make me cry,
C ( finger position moved up 2 frets on all strings)
And you tell the words like they've just gone by,
C                                                                    Em
And it seems to me, like the characters, well I know them
C (finger position moved up 2 frets on all strings)
But I've never, ever met them

Bridge

d |--0-0-0-0-0-0-0-0-0-0-0-0-0-0-0-0-0-0-0-0-0-0-0-0-0-0-0-0-0-0-0-0|
B |--0-0-0-0-0-0-0-0-0-0-0-0-0-0-0-0-0-0-0-0-0-0-0-0-0-0-0-0-0-0-0-0|
G |--4-4-4-4-0-0-4-4-4-4-4-4-0-0-4-4-4-4-4-4-0-0-4-4-4-4-4-4-0-0-4-4|  x2
D |--0-0-0-0-0-0-0-0-0-0-0-0-0-0-0-0-0-0-0-0-0-0-0-0-0-0-0-0-0-0-0-0|
A |--0-0-0-0-0-0-0-0-0-0-0-0-0-0-0-0-0-0-0-0-0-0-0-0-0-0-0-0-0-0-0-0|
D |--5-5-5-5-5-5-5-5-4-4-4-4-4-4-4-4-2-2-2-2-2-2-2-2-4-4-4-4-4-4-4-4|

C
You can make me laugh,
Em
And you can make me cry,
C ( finger position moved up 2 frets on all strings)
And you tell the words like they've just gone by,
C                                              Em                   C (finger position 
moved up 2 frets on all strings)
And it seems to me, like every word you say is true,

Outro

Bridge "And I'd die for you tell another one..."

d |--0-0-0-0-0-0-0-0-0-0-0-0-0-0-0-0-0-0-0-0-0-0-0-0-0-0-0-0-0-0-0-0-0-|
B |--0-0-0-0-0-0-0-0-0-0-0-0-0-0-0-0-0-0-0-0-0-0-0-0-0-0-0-0-0-0-0-0-0-|
G |--4-4-4-4-0-0-4-4-4-4-4-4-0-0-4-4-4-4-4-4-0-0-4-4-4-4-4-4-0-0-4-4-4-|
D |--0-0-0-0-0-0-0-0-0-0-0-0-0-0-0-0-0-0-0-0-0-0-0-0-0-0-0-0-0-0-0-0-0-|
A |--0-0-0-0-0-0-0-0-0-0-0-0-0-0-0-0-0-0-0-0-0-0-0-0-0-0-0-0-0-0-0-0-0-|
D |--5-5-5-5-5-5-5-5-4-4-4-4-4-4-4-4-2-2-2-2-2-2-2-2-4-4-4-4-4-4-4-4-5-|

Let the last chord ring and wait for applause.

Jokes.

Ross Buchanan.
Comments