Roots - Seed 20 Chords & Tabs

 

Seed 20 Chords & Tabs

Roots Chords & Tabs

Version: 1 Type: Chords 0 ratings
1 star 2 stars 3 stars 4 stars 5 stars
comments

Seed 20 Chords

   
THE ROOTS -SEED 2.0


   Am       Dm
 E|--0-x--0011--0----0-x--0011--0------------------------|
 B|--1-x--1133--1----1-x--1133--1------------------------|
 G|--2-x--2222--2----2-x--2222--2------------------------|
 D|--2-x--2200--2----2-x--2200--2------------------------|
 A|--0-x--00----0----0-x--00----0------------------------|
 E|------------------------------------------------------|

     * Play this a couple times. This is for the Intro and the Rap.

When it comes to the point when " And I dont bitch and whine when.."m play this.

[ Tab from: http://www.guitartabs.cc/tabs/r/roots/seed_20_crd.html ]
|5---5---8-------1---5--------2-----3---0---|
|5---6---10------1---7--------1-----3---3---|
|5---7---10------2---5--------2-----4---1---|
|7---7---10------3---7--------0-----5---2---|
|7---5---8-------3---5--------3-----5---2---|
I5---5---8-------1---5--------2-----3---0---|

Then switch back to the Intro Riff near the end of the song.

 Am       Dm
 E|--0-x--0011--0----0-x--0011--0------------------------|
 B|--1-x--1133--1----1-x--1133--1------------------------|
 G|--2-x--2222--2----2-x--2222--2------------------------|
 D|--2-x--2200--2----2-x--2200--2------------------------|
 A|--0-x--00----0----0-x--00----0------------------------|
 E|------------------------------------------------------|
Comments