Rootlifter - Suffering Chords & Tabs

 

Suffering Chords & Tabs

Rootlifter Chords & Tabs

Version: 1 Type: Tab 0 ratings
1 star 2 stars 3 stars 4 stars 5 stars
comments

Suffering Tab

artist: rootlifter
title: suffering
album: not yet established
tabbed and lyrics by sean carver
tuning: normal

VERSE/MAIN RIFF:

E:0-0--0-0--0-0--0-0-   
B:3-3--3-3--3-3--1-1-  
G:0-0--0-0--2-2--2-2-   strummed a lot more times...
D:2-2--0-0--0-0--2-2-
A:3-3--2-2--x-x--0-0-
E:x-x--x-x--x-x--x-x-

CHORUS:

E:0-0-0--0-0-0--0-0-0--0-0-0-
B:7-7-7--1-1-1--0-0-0--3-3-3-
G:7-7-7--0-0-0--2-2-2--3-3-3-
D:7-7-7--2-2-2--2-2-2--3-3-3-
A:5-5-5--3-3-3--0-0-0--1-1-1-
E:X-X-X--0-0-0--0-0-0--x-x-x-

LITTLE ACOUSTIC SOLO:

E:------------------------------10-------11h9----
B:-------------------------9h11----11-9*------11-
G:9*-9-12-7*-5-5/7-9*-9-12-----------------------
D:-----------------------------------------------
A:-----------------------------------------------
E:-----------------------------------------------

CONTINUED SOLO:

E:--------------------------0--0--------------------
B:9-9-9-7-7-7-8-8-8-5-5-5--0--0--2-3-----0*--2-0----
G:------------------------3--3-------3-2---------2*-
D:--------------------------------------------------
A:--------------------------------------------------
E:--------------------------------------------------

INTERLUDE:
[ Tab from: http://www.guitartabs.cc/tabs/r/rootlifter/suffering_tab.html ]
E:0-0--0----------------0-                ------------------
B:7-7--10---------------4-                -------2/3/5-3-0*-
G:7-7--10-9-7-6-7-4-2-0-4- repeat 4X then -2/4/5------------
D:7-7--10---------------4-                ------------------
A:5-5--8----------------2-                ------------------
E:x-x--x----------------x-                ------------------

VERSE 1:

so dawn has finally come,
leaving this burden to follow me,
and crying in public,
just isn't getting me anywhere,
losing all my hope,
praying for that second chance,
i feel im the only one,
but i did the same to her,

and God forgive me...

CHORUS:

im crying all night,
and sleeping through the day,
just as dreams were perfect,
she pushes them away...

VERSE 2:

so the memories start to rise,
slipping flowers in her hair,
and i couldn't complain,
when needed, she was there,
still feeling the warmth of her skin,
as we held each other through the night,
and i understand her reasons,
my temper always started the fights,

please forgive me...

INTERLUDE:

so i fucked up again,
i realize it's the end,
now i just fuck a friend,
only recieving suffering,

stop the suffering...



by sean carver
Comments