Rootlifter - Sheeps Of Fatima Chords & Tabs

 

Sheeps Of Fatima Chords & Tabs

Rootlifter Chords & Tabs

Version: 1 Type: Tab 0 ratings
1 star 2 stars 3 stars 4 stars 5 stars
comments

Sheeps Of Fatima Tab

artist: rootlifter
title: sheeps of fatima
music and lyrics by: sean carver
tuning: standard


E:----2-------2----------0-------0------
B:---3-3-----3-3--------1-1-----1-1-----
G:--0---0---0---0------0---0---0---0---- REPEAT
D:-0-----0-0-----0----2-----2-2-----2---
A:2-------2-------2--0-------0-------0--
E:--------------------------------------

E:-------------3-----3-
B:-0-----0-----0-----0-
G:-0-----0-----0-----0-
D:-4-----5-----0-----0-
A:-2-----3-----0-----0-
E:-0-----0-----3-----2-
[ Tab from: http://www.guitartabs.cc/tabs/r/rootlifter/sheeps_of_fatima_tab.html ]
E:-0-----0------0-----0-
B:-0-----0------0-----0-
G:-1-----2------3-----4-
D:-2-----3------4-----5-
A:-2-----3------4-----5-
E:-0-----0------0-----0-


LYRICS:

light beams,
light beams,
over the sheep,
a radiant woman,
on the 13th,
on the 13th,
bring your family,
they won't see me...

privacy,
prophecy,
russian revolution,
world war two,
the third one,
the third one,
no one knows,
but its to come...

but if you believe,
you will see...

i am not an alien,
i am not an alien,
hysteria isn't human,
hysteria isn't human...

punch a hole in the clouds,
punch a hole in the clouds,
see the sun,
see the sun...

burn the sceptics,
who needs photographs?
you were there,
you were there,
you were there,
you were there...



by sean carver
Comments