Rootlifter - Jupiter Chords & Tabs

 

Jupiter Chords & Tabs

Rootlifter Chords & Tabs

Version: 1 Type: Tab 0 ratings
1 star 2 stars 3 stars 4 stars 5 stars
comments

Jupiter Tab

   
artist: rootlifter
title: jupiter
album: not yet established
music and lyrics by: sean carver
tuning: standard


intro/verse guitar #1:

  A   E   D   E

intro guitar #2:
E:-----------------------------------------7h8h7------------
B:--------------------------------7--------------9-7-9b-----
G:-----------7-8-10*---10b-10b-8b--8-7*----------8-8--------
D:------------------------------------------------------8/2-
A:2/4-5*----------------------------------------------------
E:----------------------------------------------------------
        A E D                          E A E     D      E

verse guitar #2:
E:------------14--13--12-11-10-------------------
B:----9*----12--11--10--9--8--7----------5--7--2-
G:8-10-------------------------7-5*------4--6--2-
D:-----------------------------------------------
A:-----------------------------------------------
E:-----------------------------------------------
  A     E  D                       E  A  D      E

bridge guitar #1:

  C  G  C  G     Em

bridge guitar #2:
E:----------------------------------------------------------------------0
B:---10--10--10--10--10---8-8-8-8-8----10--10--10--10--10---8-8-8-8-8---0
G:-10--10--10--10--10----8-8-8-8-8---10--10--10--10--10----8-8-8-8-8----0
D:8---------------------6-----------8---------------------6-------------2
A:----------------------------------------------------------------------2
E:----------------------------------------------------------------------0
  C                     G           C                     G             Em
[ Tab from: http://www.guitartabs.cc/tabs/r/rootlifter/jupiter_tab.html ]
chorus both guitars:
E:----------------------------------------------------------------------0
B:6-6-6-6-6-6-6-6-9-9-9-9-9-9-9-9-6-6-6-6-6-6-6-6-9-9-9-9-9-9-9-9-------0
G:5-5-5-5-5-5-5-5-8-8-8-8-8-8-8-8-5-5-5-5-5-5-5-5-8-8-8-8-8-8-8-8---3-3-0
D:3-3-3-3-3-3-3-3-6-6-6-6-6-6-6-6-3-3-3-3-3-3-3-3-6-6-6-6-6-6-6-6---3-3-2
A:3-3-3-3-3-3-3-3-6-6-6-6-6-6-6-6-3-3-3-3-3-3-3-3-6-6-6-6-6-6-6-6---1-1-2
E:3-3-3-3-3-3-3-3-6-6-6-6-6-6-6-6-3-3-3-3-3-3-3-3-6-6-6-6-6-6-6-6---1-1-0

interlude guitar #1:         interlude guitar #2:
E:--------------------            E:----------------------
B:--------------------            B:----------------------
G:3---3-4---4-6---6-0-            G:7---7-8---8-10---10-5-
D:1---1-2---2-4---4-2-            D:X---X-X---X-X----X--X-
A:1---1-2---2-4---4-2-            A:5---5-6---6-8----8--3-
E:1---1-2---2-4---4-0-            E:----------------------

solo guitar #2:
E:11/12/14-11/12/14--15/16/18-15/16/18--7h9h7-7--0-
B:-------------------------------------------9---0-
G:-----------------------------------------------0- repeat
D:-----------------------------------------------2-
A:-----------------------------------------------2-
E:-----------------------------------------------0-

LYRICS:
hello colorful,
i hear you on the radio,
but no violins,
can sing your beauty,
inside,
your radiant eyes,
you've been here before,
seven-teen feet backwards...

hanging from clotheslines,
trying to get dry,
a queens rampage,
tears you up inside,
but the curtains calling,
and im watching you...

hello tasteful,
i am in limbo,
and im watching you sleep,
sweet dreams,
the world,
in a little girl,
it is crushing you,
like you're a porceline doll...

come with me,
embrace a feeling,
the sky's only a ceiling,
tonight's the night,

lets make love on Jupiter,
yea, lets make love on Jupiter...


by sean carver
Comments