Rootlifter - Aprils Sky Chords & Tabs

 

Aprils Sky Chords & Tabs

Rootlifter Chords & Tabs

Version: 1 Type: Tab 0 ratings
1 star 2 stars 3 stars 4 stars 5 stars
comments

Aprils Sky Tab

   
title: April's sky
artist: rootlifter
album: not yet established
music and lyrics by: sean carver


INTRO/INTERLUDE BUILD-UP: (distortion)
D:---------------------------------------
A:---------------------------------------
D:--------------------------------555-0--  x2
F:----------555-777-0----------888-------
B:---666-777------------888-999----------
E:000----------------888-----------------

INTRO PT #2/BRIDGE:
D:----------------------------
A:----------------------------
D:0--2-2-x-x-0-2-0-2-3--5-5-5-  x4
F:0--2-2-x-x-0-2-0-2-3--x-x-x-
B:0--2-2-x-x-0-2-0-2-3--3-3-3-
E:0--2-2-x-x-0-2-0-2-3--------

VERSE: (distortion off)
D:0--0--0--0--0--0--0--0--0--0-/0--0--0--
A:10-10-10-10-15-15-15-15-18-18/20-18-17-
D:9--9--9--9--14-14-14-14-17-17/19-17-16- strummed a lot more
F:x--x--x--x--x--x--x--x--x--x-/x--x--x--
B:7--7--7--7--12-12-12-12-15-15/17-15-14-
E:---------------------------------------

CHORUS:
D:------------------------------------
A:------------------------------------
D:9-9--10--10-10-10--5--5-5--2--2-2-2- 
F:7-7--8---8--8--8---3--3-3--0--0-0-0-
B:7-7--8---8--8--8---3--3-3--0--0-0-0-
E:7-7--8---8--8--8---3--3-3--0--0-0-0-

INTERLUDE BULID-UP:

INTERLUDE:                                        /-slide
D:-----------------------------                   *-let ring
A:-----------------------------                  ()-harmonics
D:2--2-2--8*--10--10-10--12*---
F:0--0-0--x*--8---8--8---x*----
B:0--0-0--6*--8---8--8---10*---
E:0--0-0-0-0--8---8--8--0-0-0--
[ Tab from: http://www.guitartabs.cc/tabs/r/rootlifter/aprils_sky_tab.html ]
???:
D:--------------------------0-
A:--------------------------0-
D:0-2/3---------0-2/3-------0-
F:0-2/3-(4)-(4)-0-2/3--(4)--6-
B:0-2/3-(4)-(4)-0-2/3--(4)--6-
E:0-2/3-(4)-(4)-0-2/3--(4)--6-

??? PT #2:
D:----------------------------------------------
A:----------------------------------------------
D:0-2/3-3-3-3-3-3-0-2/3-3-3-3-3-3-6-6-6-6-6-6-6-
F:0-2/3-3-3-3-3-3-0-2/3-3-3-3-3-3-6-6-6-6-6-6-6-
B:0-2/3-3-3-3-3-3-0-2/3-3-3-3-3-3-6-6-6-6-6-6-6-
E:0-2/3-3-3-3-3-3-0-2/3-3-3-3-3-3-6-6-6-6-6-6-6-

??? PT #2 SOLO: (with wah effect)
D:---------------------------------------------------------------
A:16-16-16-18-18-18-15-15-15-13-13-13-16-16-16-18-18-18-19-19-19-
D:15-15-15-17-17-17-14-14-14-12-12-12-15-15-15-17-17-17-18-18-18-
F:---------------------------------------------------------------
B:---------------------------------------------------------------
E:---------------------------------------------------------------

THEN STRAIT BACK INTO INTERLUDE



LYRICS:
thrusted towards the ground,
she spits the dirt out from her mouth,
it's poisonenous,
she feeds on her tongue,
the ink of her tattoos drip,
they're not real...

this is the core?
this is glory?

her stomach is empty,
as her liver is expanding,
she is pumped,
a cold man fucks her where she lays,
shes too weak to scream,
shes too young...

this is the source?
this is glory?

the machines stand strong,
and warm milk lasts so long,
theres a complex road ahead,
it's only the meat she is fed...

her moans are her lullabys,
she takes grip to keep from harm,
if only she could close her eyes,
and wake up in mommy's arms...

with these burdens in our lives,
how can the sun still shine?



by sean carver
Comments