Rootlifter - Angel Of Serenity Chords & Tabs

 

Angel Of Serenity Chords & Tabs

Rootlifter Chords & Tabs

Version: 1 Type: Tab 0 ratings
1 star 2 stars 3 stars 4 stars 5 stars
comments

Angel Of Serenity Tab

   
artist: rootlifter
title: angel of serenity
album: not yet established
tabbed by: sean carver

VERSE:
e:--------------------------------------------------
b:--------------------------------------------------
d:-----9------9-----2-----2-------------------------
g:--10-----10-----3-----3-------2-----2-----3-----3-
a:8------8------1-----1-------2-----2-----3-----3---
e:--------------------------0-----0-----1-----1-----

CHORUS:
e:3-3--0--0-0--0-0-0-0---3-3--0--0-0--0-0-0-0-
b:3-3--4--0-0--0-0-0-0---3-3--6--3-3--3-3-3-3-
d:0-0--4--1-1--1-1-1-1---0-0--6--2-2--2-2-2-2-
g:0-0--4--2-2--2-2-2-2---0-0--6--0-0--0-0-0-0-
a:2-2--2--2-2--2-2-2-2---2-2--4--0-0--0-0-0-0-
e:3-3-----0-0--0-0-0-0---3-3------------------
[ Tab from: http://www.guitartabs.cc/tabs/r/rootlifter/angel_of_serenity_tab.html ]
INTERLUDE:
e:0--0--0--0--0-0-0-0-0-0-0-0---------
b:9--9--9--9--3-3-3-3-0-0-0-0-3-3-3-3-
d:10-10-10-10-3-3-3-3-1-1-1-1-3-3-3-3-
g:10-10-10-10-3-3-3-3-2-2-2-2-3-3-3-3-
a:8--8--8--8--1-1-1-1-2-2-2-2-3-3-3-3-
e:--------------------0-0-0-0-1-1-1-1-

OUTRO:
e:--------------0-------------           -0-
b:--------------0-------------           -0-
d:11-11-11-\6-6-0-------------           -1-
g:x--x--x--\x-x---3-2-0-3-2-0-   x4 then -2-
a:9--9--9--\4-4---------------           -2-
e:----------------------------           -0-

LYRICS:
together we realize,
even fait has it's tears,
as our love slowly decays,
you're forced to disappear...
left to erupt beneath the tortures,
soaking up ever-rain,
depending on effector pills,
to keep this little boy sane...

where did i go wrong,
God grant me the serenity,
to heal and move along...

as heavens hurricanes breathe,
an angel decends,
lie cradled in the arms of fevour,
her warmth endures me to mend...

and in a dream,
flowers bloom,
the sun has fallen,
in a mothers whomb,
elizebeth dressed in white,
dances on the ocean,
under the moonlight,
with freedom in her eyes,
she shakes her head,
and violently she dies...

im devoured...


by sean carver
Comments