Rooster - Staring At The Sun Chords & Tabs

 

Staring At The Sun Chords & Tabs

Rooster Chords & Tabs

Version: 3 Type: Tab 0 ratings
1 star 2 stars 3 stars 4 stars 5 stars
comments

Staring At The Sun Tab

   
Staring At The Sun by Rooster
Check out this London-based band at: 
Transcribed by: Francis Flores / 16 / male / Philippines

I saw this site without any tab of this. So, I'll be proud to take a shot to tab this song.

Standard Tuning

Intro:

E|---------0-----0--------|---------0-----0--------|
B|-----3-----3-----3---3--|-----3-----3-----3---3--|
G|---2---2-----2-----2----|---2---2-----2-----2----|
D|-0----------------------|-0----------------------|
A|------------------------|------------------------|
E|------------------------|------------------------|

Verses: 2x

   Dsus2                    A

E|---------0-----0--------|---------0-----0---------|
B|-----3-----3-----3---3--|-----2-----2-----2-------|
G|---2---2-----2-----2----|-------2-----2-----------|
D|-0----------------------|---2---------------------|
A|------------------------|-0-------------------0-2-|
E|------------------------|-------------------------|

   C                        G

E|------------0-----3-----|-------------3---2--0------|
B|--------1------1-----1--|------------------------3--|
G|------0---0-------------|--------0------------------|
D|---2--------------------|------0----0---------------|
A|-3----------------------|---------------------------|
E|------------------------|-3-------------------------|


Pre-Chorus: (I'm not sure about this.)

G - A - G - A

Chorus:

   D                   Dsus2   A

E|-------------14------12----|-------------12----------|
B|-------15--------15-----15-|-------------------14----|
G|----14----14---------------|-------14-------14----14-|
D|-12------------------------|----14----14-------------|
A|---------------------------|-12----------------------|
E|---------------------------|-------------------------|

   C                            G            C   G

E|--------------15-----------|---------------0---3--|
B|--------------------17-----|---------------1---3--|
G|--------17-------17----17--|---------------0---0--|
D|-----17----17--------------|---------------2---0--|
A|-15------------------------|-----2--3--0---3---2--|
E|---------------------------|--3----------------3--|


D                   Dsus2      A/E (Bass plays E)
[ Tab from: http://www.guitartabs.cc/tabs/r/rooster/staring_at_the_sun_tab_ver_3.html ]
E|-------------14------12----|-------------17----12----|
B|-------15--------15-----15-|-------------------------|
G|----14----14---------------|-------14-------14----14-|
D|-12------------------------|----14----14-------------|
A|---------------------------|-12----------------------|
E|---------------------------|-------------------------|

   C                            G            C   G

E|--------------15-----------|--15-15-15-15--0---3--|
B|--------------------17-----|---------------1---3--|
G|--------17-------17----17--|---------------0---0--|
D|-----17----17--------------|---------------2---0--|
A|-15------------------------|---------------3---2--|
E|---------------------------|-------------------3--|

Post-chorus:

    Dsus2             C   G     D              C       G

E|--0-----------------0---3--|--0------------------------------|
B|--3-----------------1---3--|--3------------------------------|
G|--2-----------------0---0--|--2------------------------------|
D|--0-----------------2---0--|--0----------------2--5----------|
A|--------------------3---2--|-----------------3---------2--5--|
E|------------------------3--|-------------------------3-------|

The Solo:
E|------------------------------------19-|-17--17--17--17---|
B|--17^(19)-17p13-15-17^(19)-17-15-17----|-17--17--17--17---|
G|---------------------------------------|---14--14--14--14-|
D|---------------------------------------|------------------|
A|---------------------------------------|------------------|
E|---------------------------------------|------------------|

E|----------------------|--------------------------------------------------|
B|-20-19-17-15-13-15-13-|-12-13-12-15-12-13-10-12-10-13-12-10-8-1081012108-|
G|----------------------|--------------------------------------------------|
D|----------------------|--------------------------------------------------|
A|----------------------|--------------------------------------------------|
E|----------------------|--------------------------------------------------|

E|---------------------|--------------------|-19-17-15-14-15-14---|-15-14---|
B|-7-7-8-8-10-10-12-12-|-10-10-12-12--14tr--|-------------------15|------15-|
G|---------------------|--------------------|---------------------|---------|
D|---------------------|--------------------|---------------------|---------|
A|---------------------|--------------------|---------------------|---------|
E|---------------------|--------------------|---------------------|---------|

OK Fine. I've tabbed the f******* solo.
I dedicate this work to my family and friends.

Thanks to my guitar who helped me tab this song.

Any comments, suggestions, death threats, insults, prejudices or discriminations, just 
to the comments section of the file or may be, you can email me at cradleoflife212121@yahoo.com.
Comments