Rooster - Come Get Some Chords & Tabs

 

Come Get Some Chords & Tabs

Rooster Chords & Tabs

Version: 1 Type: Tab 0 ratings
1 star 2 stars 3 stars 4 stars 5 stars
comments

Come Get Some Tab

   
Rooster are a new UK rock band, this is their first single and was recently #4 in the
charts.  This posting is in response to a request for the tab on the forums.
-----------------------------------------------------------------------------
     COME GET SOME - Rooster
-----------------------------------------------------------------------------
Tabbed by: David Summers
Email:essexdave@hotmail.com

Tuning: Standard tuning capo fret 3

Please note - I have never seen this song played live (TOTP was mimed)listening to the
chord voicings on the record it seems to be played with a capo on the 3rd fret.  However
one chord in the end chorus is obviously played in standard tuning so the second guitar
playing power chords in the chorus must be in standard tuning.  Perhaps the capo is just
me being lazy but I have tabbed the song as if for a single guitar - with the most
important bits inluded.

| /  slide up
| \  slide down
| h  hammer-on
| p  pull-off
| ~  vibrato
| +  harmonic
| x  Mute note
| bu Bend string up
| bd Bend string down

ALL FRET NUMBERS FROM CAPO 3RD FRET

Intro:
e|---------------------------------0-|----------------------------|
B|-2bu3bd2p0-----------------------0-|-2bu3bd2p0------------------|
G|-----------2p0------0--------------|-----------2p0--------2-----|
D|---------------0h1p0-----0-----2---|---------------0h1p0--2-----|
A|-------------------------------2---|----------------------0-----|
E|-----------------------3---3p0-0---|--------------------0---3bu-|

e|---------------------------------0-|----------------------------|
B|-2bu3bd2p0-----------------------0-|-2bu3bd2p0------------------|
G|-----------2p0------0--------------|-----------2p0--------2-----|
D|---------------0h1p0-----0-----2---|---------------0h1p0--2-----|
A|-------------------------------2---|----------------------0-----|
E|-----------------------3---3p0-0---|--------------------0---3bu-|

Verse 1
e|-----------------------|----------------------------|
B|-x-----0--0-x----0---0-|-x--------------------------|
G|-x-----X--X-x----x---x-|-x-----0------------0-0---0-|
D|-x--5--7--7-x-5--5h7-7-|-x-----x------------5-x---x-|
A|----0--0------0--0-----|----5--7--5-7p5-7p5---5h7-7-|
E|-----------------------|----0--0----0---0-----0-----|
      m         m             m       m   m

e|-----------------------|--------------------------|
B|-x-----0--0-x----0---0-|-x------------------------|
G|-x-----X--X-x----x---x-|-x-----0------------------|
D|-x--5--7--7-x-5--5h7-7-|-x-----x------------------|
A|----0--0------0--0-----|----5--7--5-7p5-7p5-------|
E|-----------------------|----0--0----0---0---------|
      m         m             m       m   m

e|-----------------------|----------------------------|
B|-x-----0--0-x----0---0-|-x--------------------------|
G|-x-----X--X-x----x---x-|-x-----0------------0-0---0-|
D|-x--5--7--7-x-5--5h7-7-|-x-----x------------5-x---x-|
A|----0--0------0--0-----|----5--7--5-7p5-7p5---5h7-7-|
E|-----------------------|----0--0----0---0-----0-----|
      m         m             m       m   m

e|-----------------------|----------------------------|
B|-x-----0--0-x----0---0-|-x--------------------------|
G|-x-----X--X-x----x---x-|-x-----0------------0-0---0-|
D|-x--5--7--7-x-5--5h7-7-|-x-----x------------5-x---x-|
A|----0--0------0--0-----|----5--7--5-7p5-7p5---5h7-7-|
E|-----------------------|----0--0----0---0-----0-----|
      m         m             m       m   m

Bridge
e|--3--3-------3--3--|--2--3-------3--3--|--3--3-------3--3--|
B|--3--3-------3--3--|--3--2-------2--2--|--3--3-------3--3--|
G|--0--0-------0--0--|--2--3-------3--3--|--0--0-------0--0--|
D|--2--2-------2--2--|--0--0-------0--0--|--2--2-------2--2--|
A|--3--3-------3--3--|-------------------|--2--2-------2--2--|
E|-------------------|-------------------|--0--0-------0--0--|

e|-----------------------------|--3--3-------3--3--|--------------|
B|-----------------------------|--3--3-------3--3--|--7--7--7--7--|
G|--2--2-----------------------|--0--0-------0--3--|--7--7--7--7--|
D|--2--0----------0--5bu--2p0--|--2--2-------2--2--|--7--7--7--7--|
A|--0--0----0--2---------------|--3--3-------3--3--|--5--5--5--5--|
E|-----------------------------|-------------------|--------------|
            m  m

e|------------------|
B|--8--8------------|
G|--8--8------------|
D|--8--8--5bu--2p0--|
A|--6--6------------|
E|------------------|

Chorus
e|-------------------------------0--|-------------------------------|
B|-------------------------------0--|-------------------------------|
G|-2bu3bd2p0------------------------|-2bu3bd2p0---------------------|
D|-----------2p0---------2--2--2----|-----------2p0--------5-5------|
A|---------------0h1p0---2--2-------|---------------0h1p0--5-5-5/7~-|
E|---------------------0-0--0-------|----------------------3-3------|

e|-------------------------------0--|--------------------------------|
B|-------------------------------0--|------------------------7--7----|
G|-2bu3bd2p0------------------------|-2bu3bd2p0--------------7--7----|
D|-----------2p0---------2--2--2----|-----------2p0--------5-7--7----|
A|---------------0h1p0---2--2-------|---------------0h1p0--5-5~-5----|
E|---------------------0-0--0-------|----------------------3-5--5----|

e|-------------------------------0--|-------------------------------|
B|-------------------------------0--|-------------------------------|
G|-2bu3bd2p0------------------------|-2bu3bd2p0---------------------|
D|-----------2p0---------2--2--2----|-----------2p0--------5-5------|
A|---------------0h1p0---2--2-------|---------------0h1p0--5-5-5/7~-|
E|---------------------0-0--0-------|----------------------3-3------|

e|-------------------------------0--|-------------------2--2--2------|
B|-------------------------------0--|-------------------3--3--3------|
G|-2bu3bd2p0------------------------|-2bu3bd2p0---------2--2--2------|
D|-----------2p0---------2--2--2----|-----------2p0-----0--0--0------|
A|---------------0h1p0---2--2-------|---------------0h1------------~-|
E|---------------------0-0--0-------|--------------------------------|

Link between chorus and verse 2
e|-----------------------------|-----------------------------|
B|-x---------------------------|-x---------------------------|
G|-x-----0------------0-----0--|-x-----0------------0-----0--|
D|-x-----x------------5-----x--|-x-----x------------5-----x--|
A|----5--7--5-7p5-7p5---5h7-7--|----5--7--5-7p5-7p5---5h7-7--|
E|----0--0----0---0-----0------|----0--0----0---0-----0------|
      m       m   m                 m       m   m

Verse 2
e|-----------------------|----------------------------|
B|-x-----0--0-x----0---0-|-x--------------------------|
G|-x-----X--X-x----x---x-|-x-----0------------0-0---0-|
D|-x--5--7--7-x-5--5h7-7-|-x-----x------------5-x---x-|
A|----0--0------0--0-----|----5--7--5-7p5-7p5---5h7-7-|
E|-----------------------|----0--0----0---0-----0-----|
      m         m             m       m   m

e|-----------------------|--------------------------|
B|-x-----0--0-x----0---0-|-x------------------------|
G|-x-----X--X-x----x---x-|-x-----0------------------|
D|-x--5--7--7-x-5--5h7-7-|-x-----x------------------|
A|----0--0------0--0-----|----5--7--5-7p5-7p5-------|
E|-----------------------|----0--0----0---0---------|
      m         m             m       m   m
[ Tab from: http://www.guitartabs.cc/tabs/r/rooster/come_get_some_tab.html ]
e|-----------------------|----------------------------|
B|-x-----0--0-x----0---0-|-x--------------------------|
G|-x-----X--X-x----x---x-|-x-----0------------0-0---0-|
D|-x--5--7--7-x-5--5h7-7-|-x-----x------------5-x---x-|
A|----0--0------0--0-----|----5--7--5-7p5-7p5---5h7-7-|
E|-----------------------|----0--0----0---0-----0-----|
      m         m             m       m   m

e|-----------------------|----------------------------|
B|-x-----0--0-x----0---0-|-x--------------------------|
G|-x-----X--X-x----x---x-|-x-----0------------0-0---0-|
D|-x--5--7--7-x-5--5h7-7-|-x-----x------------5-x---x-|
A|----0--0------0--0-----|----5--7--5-7p5-7p5---5h7-7-|
E|-----------------------|----0--0----0---0-----0-----|
      m         m             m       m   m

Bridge
e|--3--3-------3--3--|--2--3-------3--3--|--3--3-------3--3--|
B|--3--3-------3--3--|--3--2-------2--2--|--3--3-------3--3--|
G|--0--0-------0--0--|--2--3-------3--3--|--0--0-------0--0--|
D|--2--2-------2--2--|--0--0-------0--0--|--2--2-------2--2--|
A|--3--3-------3--3--|-------------------|--2--2-------2--2--|
E|-------------------|-------------------|--0--0-------0--0--|

e|-----------------------------|--3--3-------3--3--|--------------|
B|-----------------------------|--3--3-------3--3--|--7--7--7--7--|
G|--2--2-----------------------|--0--0-------0--3--|--7--7--7--7--|
D|--2--0----------0--5bu--2p0--|--2--2-------2--2--|--7--7--7--7--|
A|--0--0----0--2---------------|--3--3-------3--3--|--5--5--5--5--|
E|-----------------------------|-------------------|--------------|
            m  m

e|------------------|
B|--8--8------------|
G|--8--8------------|
D|--8--8--5bu--2p0--|
A|--6--6------------|
E|------------------|

Chorus
e|-------------------------------0--|-------------------------------|
B|-------------------------------0--|-------------------------------|
G|-2bu3bd2p0------------------------|-2bu3bd2p0---------------------|
D|-----------2p0---------2--2--2----|-----------2p0--------5-5------|
A|---------------0h1p0---2--2-------|---------------0h1p0--5-5-5/7~-|
E|---------------------0-0--0-------|----------------------3-3------|

e|-------------------------------0--|--------------------------------|
B|-------------------------------0--|------------------------7--7----|
G|-2bu3bd2p0------------------------|-2bu3bd2p0--------------7--7----|
D|-----------2p0---------2--2--2----|-----------2p0--------5-7--7----|
A|---------------0h1p0---2--2-------|---------------0h1p0--5-5~-5----|
E|---------------------0-0--0-------|----------------------3-5--5----|

e|-------------------------------0--|-------------------------------|
B|-------------------------------0--|-------------------------------|
G|-2bu3bd2p0------------------------|-2bu3bd2p0---------------------|
D|-----------2p0---------2--2--2----|-----------2p0--------5-5------|
A|---------------0h1p0---2--2-------|---------------0h1p0--5-5-5/7~-|
E|---------------------0-0--0-------|----------------------3-3------|

e|-------------------------------0--|-------------------2--2--2------|
B|-------------------------------0--|-------------------3--3--3------|
G|-2bu3bd2p0------------------------|-2bu3bd2p0---------2--2--2------|
D|-----------2p0---------2--2--2----|-----------2p0-----0--0--0------|
A|---------------0h1p0---2--2-------|---------------0h1------------~-|
E|---------------------0-0--0-------|--------------------------------|

Middle 8
e|-----------------------------|-----------------------------|
B|-x---------------------------|-x---------------------------|
G|-x-----0------------0-----0--|-x-----0------------0-----0--|
D|-x-----x------------5-----x--|-x-----x------------5-----x--|
A|----5--7--5-7p5-7p5---5h7-7--|----5--7--5-7p5-7p5---5h7-7--|
E|----0--0----0---0-----0------|----0--0----0---0-----0------|
      m       m   m                 m       m   m

e|-----------------------------|-----------------------------|
B|-x---------------------------|-x---------------------------|
G|-x-----0------------0-----0--|-x-----0------------0-----0--|
D|-x-----x------------5-----x--|-x-----x------------5-----x--|
A|----5--7--5-7p5-7p5---5h7-7--|----5--7--5-7p5-7p5---5h7-7--|
E|----0--0----0---0-----0------|----0--0----0---0-----0------|
      m       m   m                 m       m   m

e|-----------------------------|-----------------------------|
B|-x---------------------------|-x---------------------------|
G|-x-----0------------0-----0--|-x-----0------------0-----0--|
D|-x-----x------------5-----x--|-x-----x------------5-----x--|
A|----5--7--5-7p5-7p5---5h7-7--|----5--7--5-7p5-7p5---5h7-7--|
E|----0--0----0---0-----0------|----0--0----0---0-----0------|
      m       m   m                 m       m   m

e|-----------------------------|-------------------|
B|-x---------------------------|--7-7-7-7-8-8-8-8--|
G|-x-----0------------0-----0--|--7-7-7-7-8-8-8-8--|
D|-x-----x------------5-----x--|--7-7-7-7-8-8-8-8--|
A|----5--7--5-7p5-7p5---5h7-7--|--5-5-5-5-6-6-6-6--|
E|----0--0----0---0-----0------|--5-5-5-5-6-6-6-6--|
      m       m   m        

Chorus (Power chords only)         
e|-----------------|---------------------|-----------------|
B|-----------------|----------------x-7--|-----------------|
G|-----------------|--2-2-----------x-7--|-----------------|
D|--2-2-------2-2--|--2-2-------5-5-x-7--|--2-2-------2-2--|
A|--2-2-------2-2--|--0-0-------5-5-x-5--|--2-2-------2-2--|
E|--0-0-------0-0--|------------3-3---5--|--0-0-------0-0--|

e|------------------2--2--|
B|------------------3--3--|
G|--2-2------0------2--2--|
D|--2-2------0------0--0--|
A|--0-0------0-xxxx-------|
E|------------------------|

Chorus - at this point my copy ends so no solo - soory!  As far as I know repeat chorus 'til end
e|-------------------------------0--|-------------------------------|
B|-------------------------------0--|-------------------------------|
G|-2bu3bd2p0------------------------|-2bu3bd2p0---------------------|
D|-----------2p0---------2--2--2----|-----------2p0--------5-5------|
A|---------------0h1p0---2--2-------|---------------0h1p0--5-5-5/7~-|
E|---------------------0-0--0-------|----------------------3-3------|

e|-------------------------------0--|--------------------------------|
B|-------------------------------0--|------------------------7--7----|
G|-2bu3bd2p0------------------------|-2bu3bd2p0--------------7--7----|
D|-----------2p0---------2--2--2----|-----------2p0--------5-7--7----|
A|---------------0h1p0---2--2-------|---------------0h1p0--5-5~-5----|
E|---------------------0-0--0-------|----------------------3-5--5----|

e|-------------------------------0--|-------------------------------|
B|-------------------------------0--|-------------------------------|
G|-2bu3bd2p0------------------------|-2bu3bd2p0---------------------|
D|-----------2p0---------2--2--2----|-----------2p0--------5-5------|
A|---------------0h1p0---2--2-------|---------------0h1p0--5-5-5/7~-|
E|---------------------0-0--0-------|----------------------3-3------|

e|-------------------------------0--|-------------------2--2--2------|
B|-------------------------------0--|-------------------3--3--3------|
G|-2bu3bd2p0------------------------|-2bu3bd2p0---------2--2--2------|
D|-----------2p0---------2--2--2----|-----------2p0-----0--0--0------|
A|---------------0h1p0---2--2-------|---------------0h1------------~-|
E|---------------------0-0--0-------|--------------------------------|

END
=============================================================================
Comments