Rooster - Angels Calling Chords & Tabs

 

Angels Calling Chords & Tabs

Rooster Chords & Tabs

Version: 1 Type: Tab 0 ratings
1 star 2 stars 3 stars 4 stars 5 stars
comments

Angels Calling Tab

   
Rooster- Angels calling

Hi this is my first tab but I'm pretty sure its accurate.
Rooster are a great band and this song is easy to play but also sounds great.
Listen to the song for strum patterns.

Intro:

Guitar 1

E---0-----------0-----------0-----------0-0-0-0--|
B--0-0-----0-0-0-0-----0-0-0-0-----0-0-0--0--0-0-|
G-6---6-6/8---4---4/2-2---6---6-6/8---4---3------|
D-----------------------------------------4------|
A-----------------------------------------4------|
E-----------------------------------------2------|

Guitar 2 (not sure about this)

E-9-9-9-9/12-12-12-12-7-7-7-7/5-5-5-5-9-9-9-9/12-12-12-12-7-7-6-|
B-9-9-9-9/12-12-12-12-7-7-7-7/5-5-5-5-9-9-9-9/12-12-12-12-7-7-7-|
G---------------------------------------------------------------|
D---------------------------------------------------------------|
A---------------------------------------------------------------|
E---------------------------------------------------------------|


Verse 1+2
[ Tab from: http://www.guitartabs.cc/tabs/r/rooster/angels_calling_tab.html ]
E---0-----------0-----------0-----------0-0-0-0--|
B--0-0-----0-0-0-0-----0-0-0-0-----0-0-0--0--0-0-|
G-6---6-6/8---4---4/2-2---6---6-6/8---4---3------|
D-----------------------------------------4------|
A-----------------------------------------4------|
E-----------------------------------------2------|

E---0-----------0-----------0-----------0-0-0--0-|
B--0-0-----0-0-0-0-----0-0-0-0-----0-0-0-0-0-0-0-|
G-6---6-6/8---4---4/2-2---6---6-6/8---4--------2-|
D----------------------------------------------2-|
A----------------------------------------------0-|
E----------------------------------------------0-|

Chorus:

E-0-0-0-0-|
B-0-0-0-0-|
G-6-9-4-2-|
D-6-9-4-2-|
A-4-7-2-0-|
E-x-x-x-x-

Link between Chorus and second verse:

E-0-------------------|
B--4------------------|
G---4-- X7 -4-4-4-4/6-|
D---------------------|
A---------------------|
E---------------------|

Solo:

E-----11-11/12----------------------9-7/9-11-12-14-|
B-7/9----------12-12/10-12/9-7/9-12----------------|
G--------------------------------------------------|
D--------------------------------------------------|
A--------------------------------------------------|
E--------------------------------------------------|

Chorus then fade with:

E-0---
B--4--
G---4-
D-----
A-----
E-----
Comments